Song name
# A B C D E F G H I J K L M N O P Q R S T U V W X Y Z

Misc Unsigned Bands - Between Home And Serenity - Tranquility tab

----------------------------------------------------------------------------             
    Between Home And Serenity - Tranquility
                    Power Weapons in the Complex - 2005
----------------------------------------------------------------------------

Tabbed by: JesseLaceyIsGod
 ilikesubs123@aol.com

I couldn't believe there weren't any tabs for this song or this band, they're so good. 
I tabbed the little intro bit to this one out myself, sounds right to me.


tuning: drop d (DADGBe)


Intro:

Gtr. 1 (light distortion)
e|-----------------|-----------------|-----------------|----------|
B|-----------------|-----------------|-----------------|----------|
G|-----------------|-----------------|-----------------|----------|
D|-5-5-5-5-5-5-5-5-|-2-2-2-2-2-2-2-2-|-5-5-5-5-5-5-5-5-|-2---0-3~-|
A|-5-5-5-5-5-5-5-5-|-2-2-2-2-2-2-2-2-|-5-5-5-5-5-5-5-5-|-2-3------|
D|-5-5-5-5-5-5-5-5-|-2-2-2-2-2-2-2-2-|-5-5-5-5-5-5-5-5-|-2--------|
   * * * * * * * *   * * * * * * * *   * * * * * * * *   *

Gtr. 2 (heavy distortion)

e|-----------------|-----------------|-----------------|----------|
B|-----------------|-----------------|-----------------|----------|
G|-----------------|-----------------|-----------------|----------|
D|-5-5-5-5-5-5-5-5-|-FEEDBACK--------|-FEEDBACK--------|-0--------|
A|-5-5-5-5-5-5-5-5-|-----------------|-----------------|-0--------|
D|-5-5-5-5-5-5-5-5-|-----------------|-----------------|-0--------|
   * * * * * * * * *                                     *


then Pre-Chorus:

Gtr. 2 (heavy Distortion)
e|-----------------|-----------------|-----------------|-----------------|
B|-----------------|-----------------|-----------------|-----------------|
G|-----------------|-----------------|-----------------|-----------------|
D|-5-5-5-5-5-5-5-5-|-2-2-2-2-2-2-2-2-|-5-5-5-5-5-5-5-5-|-2-2-2-2-2-2-2-2-|
A|-5-5-5-5-5-5-5-5-|-2-2-2-2-2-2-2-2-|-5-5-5-5-5-5-5-5-|-2-2-2-2-2-2-2-2-|
D|-5-5-5-5-5-5-5-5-|-2-2-2-2-2-2-2-2-|-5-5-5-5-5-5-5-5-|-2-2-2-2-2-2-2-2-| x2


~ = let ring
* = palm mute
Tap to rate this tab
 
# A B C D E F G H I J K L M N O P Q R S T U V W X Y Z