Song name
# A B C D E F G H I J K L M N O P Q R S T U V W X Y Z

Misc Unsigned Bands - Caprone - Just For Fun tab

e---------------------------------------------------------------------------|
b---------------------------------------------------------------------------|
g------------------------------------------------------------------7--7--7--|
d--------5-------------5-7-----------5-------------5-7---7-5-0-----7--7--7--|
a----5h7---7-------5h7----------5h7----7-------5h7-----------------5--5--5--|
e--0------------0-------------0--------------0------------------------------|

e---------------------------------------------------------------------------|
b---------------------------------------------------------------------------|
g-----5--5--5--------2-2-2--2--2--2------7--7--7------5--5--5--------2-2-2--|
d-----5--5--5--------2-2-2--2--2--2------7--7--7------5--5--5--------2-2-2--|
a--0--3--3--3----0---0-0-0--0--0--0------5--5--5---0--3--3--3----0---0-0-0--|
e---------------------------------------------------------------------------|
Tap to rate this tab
# A B C D E F G H I J K L M N O P Q R S T U V W X Y Z