Song name
# A B C D E F G H I J K L M N O P Q R S T U V W X Y Z

Misc Unsigned Bands - Inspector Gadget Theme Song tab

Help us improve GuitareTab! Take a short survey!
|---------------------------|
|---------------------------|
|-10b(13)---10b(13,5)-------|
|---------------------------|
|---------------------------|
|--------------------17\----|
with volume swells..


|-------------x------------------------------x-----------------|
|-------------x------------------------------x-----------------|
|-------------x-------------2-1~-------------x------------2-4~-|
|--------0-2--x---------0-2-------------0-2--x--------0-2------|
|--0-2-3----------0-2-3-----------0-2-3---------0-2-3----------|
|--------------------------------------------------------------|


|-------------------------------------------------------|
|-------------------------------------------------------|
|-------------------------------------------------------|
|--7-6--------5-4----x-x-7-6---5-4---3-2-----2----------|
|------7--x-x-----6----------7-----6-----2-3---5-3-2----|
|-------------------------------------------------------|


|---------------------------------------------------------|
|---------------------------------------------------------|
|----------------------------------2-1--1(TAP11)-1(TAP11)-|
|--------0-2---1---0-----------0-2------------------------|
|--0-2-3-----3---2---3---0-2-3----------------------------|
|---------------------------------------------------------|


|---------------------------------------------------------------------|
|--------------------------<5><5><5><5>--<5><5><5><5>-----------------|
|-------------------------------------------------------2-------------|
|--------0-2---1---0----7-----------------------------2-2--8----------|
|--0-2-3-----3---2---3--7-----------------------------2-0--8----------|
|-----------------------5-----------------------------0----6-/-18~~\\-|


|---------------------------------------------------------|
|---------------------------------------------------------|
|----------------------------------2-1--1(TAP11)-1(TAP11)-|
|--------0-2---1---0-----------0-2------------------------|
|--0-2-3-----3---2---3---0-2-3----------------------------|
|---------------------------------------------------------|


|---------------------------------------------------------|
|---------------------------------------------------------|
|---------------------------------------------------------|
|--------0-2---1---0-----3---3----7-6--10-9---------------|
|--0-2-3-----3---2---3---3---3----7-6--10-9---------------|
|------------------------1-0-1-0--5-4--8--7---------------|
                       pm..................


|--5---5-x-x-5--5------------------------------------------|
|--5h6-6-x-x-6--6------------------------------------------|
|--5---5-x-x-5--5--14-16-16-14-------14-14-----------------|
|--5h7----------7--------------17-15-------17-15-14--------|
|--5------------5------------------------------------------|
|----------------------------------------------------------|


|--5---5-x-x-5------------------------------------------|
|--5h6-6-x-x-6------------------------------------------|
|--5---5-x-x-5----14-16-16-14-13------------------------|
|--5h7---------------------------15-14-14-12------------|
|--5-----------------------------------------15p14------|
|-------------------------------------------------------|


|---------------------------------------------------------|
|---------------------------------------------------------|
|----------------------------------2-1--1(TAP11)-1(TAP11)-|
|--------0-2---1---0-----------0-2------------------------|
|--0-2-3-----3---2---3---0-2-3----------------------------|
|---------------------------------------------------------|


|------------------------------------------------------|
|------------------------------------------------------|
|------------------------------------------------------|
|--------0-2---1---0-----3--2--7--6--10-9--15-14-------|
|--0-2-3-----3---2---3---3--2--7--6--10-9--15-14-------|
|------------------------1--0--5--4--8--7--13-12-------|


|--------------------------------------------------------|
|--------------------------------------------------------|
|------------------------------------------------2-------|
|-19b-19-18-17-16-15-14-13-12-11--7--6-5--4-3--2-2--8-\--|
|---------------------------------7--6-5--4-3--2-0--8-\--|
|---------------------------------5--4-3--2-1--0----6-\--|
Related for Inspector Gadget Theme Song tab