Song name
# A B C D E F G H I J K L M N O P Q R S T U V W X Y Z

Misc Unsigned Bands - Dj Khaled - Before The Solution tab

----------------------------------------------------------------------------
			  Dj Khaled - Before the Solution
----------------------------------------------------------------------------
Tabbed by: Bryce
Email: genma_is_god_aaf@yaoo.com
Dj Khaled Site: http://www.myspace.com/djkhaled
Tuning: Standard


Simple song but I enjoy it, I like to go back and forth between the two guitar parts.

Guitar 1
         3x              1x
e|-------------------|---------|
A|-------------------|---------|
D|-------------------|---------|
G|----9-9--7---------|---------|
B|-7-----10--10-9-10-|-9-99-77~|
E|-0-----------------|-7-77-55~|
                         .  .

Guitar 2

e|----7-7---5-------|--7~7~-5~|
A|--------8---8-7-8-|---------|
D|------------------|---------|
G|-2----------------|---------|
B|-2----------------|---------|
E|-0----------------|---------|
Tap to rate this tab
# A B C D E F G H I J K L M N O P Q R S T U V W X Y Z