Song name
# A B C D E F G H I J K L M N O P Q R S T U V W X Y Z

Misc Unsigned Bands - Misc Unsigned Bands Crash - Turn The Screw tab

Scale: major pentatonic (B) 7th position

e----------------------7-9-|
b-----------------7-10-----|
g-------------6-9----------|
D---------7-9--------------|
A-----7-9------------------|
E-7-9----------------------|

SOLO
e-----------------------------7------------------------------------|
b-9b10-9~~~---------------------10-7------7------------------------|
g-9b10-9~~~-----------7b8r-9~--------9b10---6b7--------------------|
D-------------7~-7h9~---------------------------9--9~~-9~~-9~~-9~~-|
A------------------------------------------------------------------|
E------------------------------------------------------------------|

e------------------------------------------------------12-9-9\|
b------------------------------------------------10b11----9-9\|
g---------8p7--------------------10-7-8-----------------------|
D--9~~-9~~---5---------7----9~~---------9b10~~~~--------------|
A--------------5---5b7---7~-----------------------------------|
E-------------------------------------------------------------|

e---------|
b-10-9~---|
g-9--9~---|
D-11-9~---|
A---------|
E---------|

e--------------------|
b-10-7-9-7-----------|
g----------9~~~~~~~~-|
D--------------------|
A--------------------|
E--------------------|

e-------------17---------------------------------------------------|
b-20b21-20b21---20-17--17------------------------------------------|
g--------------------19--17----9~-11p9-11~-------4p2p0-----------2-|
D--------------------------19~-------------9-7-5-------4~~~~~~~--2-|
A-------------------------------------------(0|0)----------------0-|
E------------------------------------------------------------------|

Tap to rate this tab
# A B C D E F G H I J K L M N O P Q R S T U V W X Y Z