Song name
# A B C D E F G H I J K L M N O P Q R S T U V W X Y Z

Misc Unsigned Bands - Nick Foy - Nicks Guitar Song tab

Tuning: b

Chorus

|------------------------------------------------------|
|------------------------------------------------------|
|------------------------------------------------------|
|2----9----7----9----11----2----9----7----10----12-----|
|2----9----5----7----9-----2----9----5----8-----10-----|
|2----9----5----7----9-----2----9----5-----------------|

Verse
 pm the notes on the bottom string
|------------------------------------------------------|
|------------------------------------------------------|
|------------------------------------------------------|
|------------------------------------------------------|
|------7-7-7-------7-7-7-------5-5-5-------5-5-5-------|
|7-7-7-------7-7-7-------5-5-5-------5-5-5-------------|

Pre-Chorus
pm whole prechorus but releases on last note
|------------------------------------------------------|
|------------------------------------------------------|
|------------------------------------------------------|
|7---------9---------11---------14---------------------|
|5---------7---------9----------12---------------------|
|--------------------9---------------------------------|

Bridge

|------------------------------------------------------|
|------------------------------------------------------|
|------------------------------------------------------|
|222-0-0-22-2-2-777-0-0-77-7-7-7-555-0-0-55-5-5-5------|
|222-0-0-22-2-2-777-0-0-77-7-7-7-555-0-0-55-5-5-5------|
|222-0-0-22-2-2-777-0-0-77-7-7-7-555-0-0-55-5-5-5------|

|------------------------------------------------------| 
|------------------------------------------------------|
|------------------------------------------------------|
|44-44-44-44-777-44-44-44-44-101010--------------------|
|44-44-44-44-777-44-44-44-44-101010--------------------|
|44-44-44-44-777-44-44-44-44-101010--------------------|

|------------------------------------------------------|
|------------------------------------------------------|
|------------------------------------------------------|
|222-0-0-22-2-2-777-0-0-77-7-7-7-555-0-0-55-5-5-5------|
|222-0-0-22-2-2-777-0-0-77-7-7-7-555-0-0-55-5-5-5------|
|222-0-0-22-2-2-777-0-0-77-7-7-7-555-0-0-55-5-5-5------|

|------------------------------------------------------|
|------------------------------------------------------|
|------------------------------------------------------|
|44-44-44-44-777-44-44-44-44---------------------------|
|44-44-44-44-777-44-44-44-44-8-10-0--------------------|
|44-44-44-44-777-44-44-44-44---------------------------|

Order

Intro (not shown)
Chorus
Verse x4
Prechorus
Chorus
Verse x4
Prechorus
Chorus
Bridge
Chorus X2

Tap to rate this tab
# A B C D E F G H I J K L M N O P Q R S T U V W X Y Z