Song name
# A B C D E F G H I J K L M N O P Q R S T U V W X Y Z

Misc Unsigned Bands - Soul Circumference - Talk To Your Head 2nd Guitar tab

----------------------------------------------------------------------------
	     Talk to your Head (2nd guitar) - Soul Circumference
----------------------------------------------------------------------------
Tabbed by: JHR
Email: Rosene_j@denison.edu

Tuning: Standard


(Bass starts song no guitar)
e|-------------------------------------------------------------------------|
B|-------------------------------------------------------------------------|
G|-------------------------------------------------------------------------|
D|-------------------------------------------------------------------------|
A|-------------------------------------------------------------------------|
E|-------------------------------------------------------------------------|

INTRO and Verse (played through the lead guitar riff.
e|-------------------------------------------------------------------------|
B|-------------------------------------------------------------------------|
G|-------------------------------------------------------------------------|
D|--3----2----3----1-------------------------------------------------------|
A|--5----3----1----0-------------------------------------------------------|
E|-------------------------------------------------------------------------|

Bridge (second time played twice)
e|-------------------------------------------------------------------------|
B|-------------------------------------------------------------------------|
G|------------------------------------3------3---3----3--------------------|
D|---------5------5---5---5------------------------------------------------|
A|-----------------------------1-1-1-----1-1---1----1----------------------|
E|--3-3-3-----3-3---3---3--------------------------------------------------|

CHORUS and Soft middle part
e|--------5----------3---------1-------------------------------------------|
B|--------5----------3---------1-------------------------------------------|
G|--------7----------5---------3-------------------------------------------|
D|--------7----------5---------3-------------------------------------------|
A|--------5----------3---------1-------------------------------------------|
E|-------------------------------------------------------------------------|


| /  slide up
| \  slide down
| h  hammer-on
| p  pull-off
| ~  vibrato
| +  harmonic
| x  Mute note
============================================================================
Tap to rate this tab
# A B C D E F G H I J K L M N O P Q R S T U V W X Y Z