Song name
# A B C D E F G H I J K L M N O P Q R S T U V W X Y Z

Misc Unsigned Bands - Sacred Obsession - Broken Soul tab

Help us improve GuitareTab! Take a short survey!
------------------------------------------------------|
------------------------------------------------------|
------------------------------------------------------|  Riff A
------------------------------------------------------|
-0--7--0--5--7---0--5--7--0--5--7--0--5--7------------|
-0--7--0--5--7---0--5--7--0--5--7--0--5--7------------|
                         pm       pm

------------------------------------------------------|
------------------------------------------------------|
------------------------------------------------------|
----5-/7-7-----8-7-5-----5-/7-7-----8/7-8/7-----------|  Riff B
-0--3-/5-5--0--6-5-3--0--3-/5-5--0--6/5-6/5-----------|
-0----------0---------0----------0--------------------|

------------------------------------------------------|
------------------------------------------------------|
------------------------------------------------------|
----5-/7-7-----8-7-5-----5-/7-7-----8/7-8/7-8/7-8/7---|  Riff C
-0--3-/5-5--0--6-5-3--0--3-/5-5--0--6/5-6/5-6/5-6/5---|
-0----------0---------0----------0--------------------|

---------------------------------------------------------|
---------------------------------------------------------|
---------------------------------------------------------|  Riff D
-------5-/7-7-------6-/7-7-------5-/7-7------------------|
-0-----3-/5-5-0-----4-/5-5-0-----3-/5-5---5----3---------|
-0-0-0--------0-0-0--------0-0-0--------0-5--0-3---------|
   pm.          pm.        pm.        pm   pm

--------------------------------------------------------|
--------------------------------------------------------|
--------------------------------------------------------| Riff E
-------5-/7-7-------8/7-7-------5-/7-7--8/7-8/7-8/7-----|
-0-----3-/5-5-0-----6/5-5-0-----3-/5-5--6/5-6/5-6/5-----|
-0-0-0--------0-0-0-------0-0-0-------------------------|
   pm.          pm.        pm.

----------------------------------------------------------------|
----------------------------------------------------------------|
----------------------------------------------------------------|  Riff F
-----8/7-8/7-8/7--5---8/7-8/7-8/7------8/7-8/7-8/7--5-----------|
-0---6/5-6/5-6/5--3---6/5-6/5-6/5--0---6/5-6/5-6/5--3---5--3-2--|
-0---------------------------------0--------------------5--3-2--|

------------------------------------------------------|
------------------------------------------------------|
------------------------------------------------------|  Riff G
------------------------------------------------------|
------5p0-7p0-8p0-7p0-5h7--5p0-7p0-8p0-7p0-5~---------|
------------------------------------------------------|

------------------------------------------------------|
------------------------------------------------------|
------------------------------------------------------|  Riff H
------------------------------------------------------|
-0--0-0-0--0-0-0--0-0--0-0-0-0--0-0-0--0-0-0-5--0-3---|
-0--0-0-0--0-0-0--0-0--0-0-0-0--0-0-0--0-0-0-5--0-3---|
 pm.........................................   pm

-------------------------------------------------------------------|
-------------------------------------------------------------------|  Riff I
-------------------------------------------------------------------|
-7--9--10-9--7-/9--7--9--10-9--7--7--9--10-9--7-/9--7--9--10-9--7--|
-5--7--8--7--5-/7--5--7--8--7--5--5--7--8--7--5-/7--5--7--8--7--5--|
-------------------------------------------------------------------|

-------------------------------------------------------------------------|
-------------------------------------------------------------------------|
-------------------------------------------------------------------------|  Riff J
-------------------------------------------------------------------------|
------------12-------------10-------------9-------------8----------------|
-0-0-0-0-0--12--0-0-0-0-0--10--0-0-0-0-0--9--0-0-0-0-0--8--0-0-0-0--9~---|
 pm.......      pm.......      pm.......     pm.......     pm.....

-----------------------------------------------------------|
-----------------------------------------------------------|
-----------------------------------------------------------|  Riff K
-----------------------------------------------------------|
------------12-------------10-------------8----------------|
-0-0-0-0-0--12--0-0-0-0-0--10--0-0-0-0-0--8--0-0-0-0--9~---|
 pm.......      pm.......      pm.......     pm.....

------------------------------------------------------|
------------------------------------------------------|
------------------------------------------------------|  Riff L
------------------------------------------------------|
--0>>-3>>-5>-3>-5-7---0>>-3>>-5>-3>-5-3---------------|
--0>>-3>>-5>-3>-5-7---0>>-3>>-5>-3>-5-3---------------|

------------------------------------------------------|
------------------------------------------------------|
------------------------------------------------------|  Riff M
------------------------------------------------------|
-0--7--0--5--7---0--5--7--0--5--7--0--5--7------------|
-0--7--0--5--7---0--5--7--0--5--7--0--5--7------------|
 pm.......................................

 sequence
**********

Riff A X6  let open 6th string ring
Riff B X1
Riff C X1
Riff D X1
Riff E X1
Riff D X1
Riff E X1
Riff F X1
Riff G X4
Riff H X4
Riff D X2
Riff H X4
Riff E X2       www.myspace.com/sacredobsessionmetal
Riff F X2
Riff G X2
Riff I X2
Riff J X1
Riff K X3
Riff L X2
Riff A X4
Riff M X3
Riff A X1
Related for Sacred Obsession - Broken Soul tab