Song name
# A B C D E F G H I J K L M N O P Q R S T U V W X Y Z

Misc Unsigned Bands - Back To Disaster - When You Came tab

legend:
/=bend


E-----------------------------------------------------------------------|
A------------------------------------------------11--9--11--9--11--9----|
D----13--11--13--11--13--11--13--11--13--11--12-------------------------|
G--------------------------------------------------------------------10-|
B-----------------------------------------------------------------------|
E-----------------------------------------------------------------------|


E--------------------------------8--7--5--7--5--7--5--7--5---|
A--7--9--7--9--7--9--7--9--7--9----------------------------6-|
D------------------------------------------------------------|
G------------------------------------------------------------|
B------------------------------------------------------------|
E------------------------------------------------------------|

E--5--3--5--3--5--3--5--3---1--3--1--3--1--3--1--3--2/--|
A-------------------------------------------------------|
D-------------------------4-----------------------------|
G-------------------------------------------------------|
B-------------------------------------------------------|
E-------------------------------------------------------|
Tap to rate this tab
 
# A B C D E F G H I J K L M N O P Q R S T U V W X Y Z