Guitaretab - guitar tabs
Song name
# A B C D E F G H I J K L M N O P Q R S T U V W X Y Z

Misc Unsigned Bands - Chroberry - Song1 tab

Guitar A
          PM PM PM      PM PM PM         PM PM PM      PM PM PM  
          |--3--|       |--3--|          |--3--|       |--3--|   
     Q    E  E  E  Q    E  E  E     Q    E  E  E  Q    E  E  E   
D||------------------------------|------------------------------|
A||------------------------------|------------------------------|
F||--7-------------7-------------|--7-------------7-------------|
C||--7-------------7-------------|--7-------------7-------------|
G||--5-------------5-------------|--5-------------5-------------|
C||--0----0--0--0--0----0--0--0--|--0----0--0--0--0----0--0--0--|


       PM PM PM      PM PM PM         PM PM PM      PM PM PM  
       |--3--|       |--3--|          |--3--|       |--3--|   
  Q    E  E  E  Q    E  E  E     Q    E  E  E  Q    E  E  E   
------------------------------|------------------------------|
------------------------------|------------------------------|
--8-------------8-------------|--8-------------8-------------|
--6-------------6-------------|--6-------------6-------------|
--6-------------6-------------|--6-------------6-------------|
--6----6--6--6--6----6--6--6--|--6----6--6--6--6----6--6--6--|


       PM PM PM      PM PM PM         PM PM PM      PM PM PM  
       |--3--|       |--3--|          |--3--|       |--3--|   
  Q    E  E  E  Q    E  E  E     Q    E  E  E  Q    E  E  E   
------------------------------|------------------------------|
------------------------------|------------------------------|
--7-------------7-------------|--7-------------7-------------|
--7-------------7-------------|--7-------------7-------------|
--5-------------5-------------|--5-------------5-------------|
--0----0--0--0--0----0--0--0--|--0----0--0--0--0----0--0--0--|


       PM PM PM      PM PM PM         PM PM PM      PM PM PM  
       |--3--|       |--3--|          |--3--|       |--3--|   
  Q    E  E  E  Q    E  E  E     Q    E  E  E  Q    E  E  E   
------------------------------|------------------------------|
------------------------------|------------------------------|
--8-------------8-------------|--8-------------8-------------|
--6-------------6-------------|--6-------------6-------------|
--6-------------6-------------|--6-------------6-------------|
--6----6--6--6--6----6--6--6--|--6----6--6--6--6----6--6--6--|


       PM PM PM      PM PM PM         PM PM PM       PM PM PM  
       |--3--|       |--3--|          |--3--|        |--3--|   
  Q    E  E  E  Q    E  E  E     Q    E  E  E   Q    E  E  E   
------------------------------|-------------------------------|
------------------------------|-------------------------------|
--7-------------7-------------|--9-------------10-------------|
--7-------------7-------------|-------------------------------|
--5-------------5-------------|--5--------------5-------------|
--0----0--0--0--0----0--0--0--|--0----0--0--0---0----0--0--0--|


        PM PM PM       PM PM PM           PM  PM  PM        PM  PM  PM  
        |--3--|        |--3--|            |---3---|         |---3---|   
   Q    E  E  E   Q    E  E  E      Q     E   E   E   Q     E   E   E   
--------------------------------|--------------------------------------|
--------------------------------|--------------------------------------|
--10-------------12-------------|--12----------------14----------------|
---8--------------8-------------|--10----------------10----------------|
---8--------------8-------------|--10----------------10----------------|
---8----8--8--8---8----8--8--8--|--10----10--10--10--10----10--10--10--|


       PM PM PM      PM PM PM         PM PM PM       PM PM PM  
       |--3--|       |--3--|          |--3--|        |--3--|   
  Q    E  E  E  Q    E  E  E     Q    E  E  E   Q    E  E  E   
------------------------------|-------------------------------|
------------------------------|-------------------------------|
--7-------------7-------------|--9-------------10-------------|
--7-------------7-------------|-------------------------------|
--5-------------5-------------|--5--------------5-------------|
--0----0--0--0--0----0--0--0--|--0----0--0--0---0----0--0--0--|


        PM PM PM       PM PM PM           PM  PM  PM        PM  PM  PM  
        |--3--|        |--3--|            |---3---|         |---3---|   
   Q    E  E  E   Q    E  E  E      Q     E   E   E   Q     E   E   E   
--------------------------------|--------------------------------------|
--------------------------------|--------------------------------------|
--10-------------12-------------|--12----------------14----------------|
---8--------------8-------------|--10----------------10----------------|
---8--------------8-------------|--10----------------10----------------|
---8----8--8--8---8----8--8--8--|--10----10--10--10--10----10--10--10--|


       PM PM PM      PM PM PM         PM PM PM        PM  PM  PM  
       |--3--|       |--3--|          |--3--|         |---3---|   
  Q    E  E  E  Q    E  E  E     Q    E  E  E   Q     E   E   E   
------------------------------|----------------------------------|
------------------------------|----------------------------------|
--7----7--7--7--7----7--7--7--|--9----9--9--9--10----10--10--10--|
--7----7--7--7--7----7--7--7--|----------------------------------|
--5----5--5--5--5----5--5--5--|--5----5--5--5---5-----5---5---5--|
--0----0--0--0--0----0--0--0--|--0----0--0--0---0-----0---0---0--|


         PM  PM  PM        PM  PM  PM           PM  PM  PM        PM  PM  PM  
         |---3---|         |---3---|            |---3---|         |---3---|   
   Q     E   E   E   Q     E   E   E      Q     E   E   E   Q     E   E   E   
--------------------------------------|--------------------------------------|
--------------------------------------|--------------------------------------|
--10----10--10--10--12----12--12--12--|--12----12--12--12--14----14--15--14--|
---8-----8---8---8---8-----8---8---8--|--10----10--10--10--10----10--10--10--|
---8-----8---8---8---8-----8---8---8--|--10----10--10--10--10----10--10--10--|
---8-----8---8---8---8-----8---8---8--|--10----10--10--10--10----10--10--10--|


       PM PM PM      PM PM PM         PM PM PM        PM  PM  PM  
       |--3--|       |--3--|          |--3--|         |---3---|   
  Q    E  E  E  Q    E  E  E     Q    E  E  E   Q     E   E   E   
------------------------------|----------------------------------|
------------------------------|----------------------------------|
--7----7--7--7--7----7--7--7--|--9----9--9--9--10----10--10--10--|
--7----7--7--7--7----7--7--7--|----------------------------------|
--5----5--5--5--5----5--5--5--|--5----5--5--5---5-----5---5---5--|
--0----0--0--0--0----0--0--0--|--0----0--0--0---0-----0---0---0--|


         PM  PM  PM        PM  PM  PM           PM  PM  PM        PM  PM  PM  
         |---3---|         |---3---|            |---3---|         |---3---|   
   Q     E   E   E   Q     E   E   E      Q     E   E   E   Q     E   E   E   
--------------------------------------|--------------------------------------|
--------------------------------------|--------------------------------------|
--10----10--10--10--12----12--12--12--|--12----12--12--12--14----14--15--14--|
---8-----8---8---8---8-----8---8---8--|--10----10--10--10--10----10--10--10--|
---8-----8---8---8---8-----8---8---8--|--10----10--10--10--10----10--10--10--|
---8-----8---8---8---8-----8---8---8--|--10----10--10--10--10----10--10--10--|


  W                   W                   W                   W                 
-------------------|-------------------|-------------------|-------------------|
-------------------|-------------------|-------------------|-------------------|
-------------------|-------------------|-------------------|-------------------|
--0----------------|--0----------------|--0----------------|--0----------------|
--0----------------|--0----------------|--0----------------|--0----------------|
--0----------------|--0----------------|--0----------------|--0----------------|


         |--3--|       |--3--|          |--3--|       |--3--|   
    Q    E  E  E  Q    E  E  E     Q    E  E  E  Q    E  E  E   
|-------------------------------|------------------------------|
|-------------------------------|------------------------------|
|*--7-------------7-------------|--3-------------5-------------|
|*--7-------------7-------------|--3-------------5-------------|
|---5-------------5-------------|--1-------------3-------------|
|--------0--0--0-------0--0--0--|-------0--0--0-------0--0--0--|


       |--3--|       |--3--|          |--3--|       |--3--|   
  Q    E  E  E  Q    E  E  E     Q    E  E  E  Q    E  E  E   
------------------------------|------------------------------|
------------------------------|------------------------------|
--7-------------7-------------|--3-------------5-------------|
--7-------------7-------------|--3-------------5-------------|
--5-------------5-------------|--1-------------3-------------|
-------0--0--0-------0--0--0--|-------0--0--0-------0--0--0--|


       |--3--|       |--3--|          |--3--|       |--3--|   
  Q    E  E  E  Q    E  E  E     Q    E  E  E  Q    E  E  E   
------------------------------|------------------------------|
------------------------------|------------------------------|
--7-------------7-------------|--3-------------5-------------|
--7-------------7-------------|--3-------------5-------------|
--5-------------5-------------|--1-------------3-------------|
-------0--0--0-------0--0--0--|-------0--0--0-------0--0--0--|


            |--3--|  |--3--|               |--3--|  |--3--|     
  Q    Q    E  E  E  E  E  E     Q    Q    E  E  E  E  E  E     
------------------------------|-------------------------------||
------------------------------|-------------------------------||
------------------------------|------------------------------*||
--3----3----2--3--2-----------|--2----2----2--3--2-----------*||
--1----1-------------3--1--0--|--0----0-------------3--1--0---||
------------------------------|-------------------------------||


       PM PM PM      PM PM PM         PM PM PM        PM  PM  PM  
       |--3--|       |--3--|          |--3--|         |---3---|   
  Q    E  E  E  Q    E  E  E     Q    E  E  E   Q     E   E   E   
------------------------------|----------------------------------|
------------------------------|----------------------------------|
--7----7--7--7--7----7--7--7--|--9----9--9--9--10----10--10--10--|
--7----7--7--7--7----7--7--7--|----------------------------------|
--5----5--5--5--5----5--5--5--|--5----5--5--5---5-----5---5---5--|
--0----0--0--0--0----0--0--0--|--0----0--0--0---0-----0---0---0--|


         PM  PM  PM        PM  PM  PM           PM  PM  PM        PM  PM  PM  
         |---3---|         |---3---|            |---3---|         |---3---|   
   Q     E   E   E   Q     E   E   E      Q     E   E   E   Q     E   E   E   
--------------------------------------|--------------------------------------|
--------------------------------------|--------------------------------------|
--10----10--10--10--12----12--12--12--|--12----12--12--12--14----14--15--14--|
---8-----8---8---8---8-----8---8---8--|--10----10--10--10--10----10--10--10--|
---8-----8---8---8---8-----8---8---8--|--10----10--10--10--10----10--10--10--|
---8-----8---8---8---8-----8---8---8--|--10----10--10--10--10----10--10--10--|


       PM PM PM      PM PM PM         PM PM PM        PM  PM  PM  
       |--3--|       |--3--|          |--3--|         |---3---|   
  Q    E  E  E  Q    E  E  E     Q    E  E  E   Q     E   E   E   
------------------------------|----------------------------------|
------------------------------|----------------------------------|
--7----7--7--7--7----7--7--7--|--9----9--9--9--10----10--10--10--|
--7----7--7--7--7----7--7--7--|----------------------------------|
--5----5--5--5--5----5--5--5--|--5----5--5--5---5-----5---5---5--|
--0----0--0--0--0----0--0--0--|--0----0--0--0---0-----0---0---0--|


         PM  PM  PM        PM  PM  PM           PM  PM  PM        PM  PM  PM  
         |---3---|         |---3---|            |---3---|         |---3---|   
   Q     E   E   E   Q     E   E   E      Q     E   E   E   Q     E   E   E   
--------------------------------------|--------------------------------------|
--------------------------------------|--------------------------------------|
--10----10--10--10--12----12--12--12--|--12----12--12--12--14----14--15--14--|
---8-----8---8---8---8-----8---8---8--|--10----10--10--10--10----10--10--10--|
---8-----8---8---8---8-----8---8---8--|--10----10--10--10--10----10--10--10--|
---8-----8---8---8---8-----8---8---8--|--10----10--10--10--10----10--10--10--|


       PM PM PM      PM PM PM         PM PM PM        PM  PM  PM  
       |--3--|       |--3--|          |--3--|         |---3---|   
  Q    E  E  E  Q    E  E  E     Q    E  E  E   Q     E   E   E   
------------------------------|----------------------------------|
------------------------------|----------------------------------|
--7----7--7--7--7----7--7--7--|--9----9--9--9--10----10--10--10--|
--7----7--7--7--7----7--7--7--|----------------------------------|
--5----5--5--5--5----5--5--5--|--5----5--5--5---5-----5---5---5--|
--0----0--0--0--0----0--0--0--|--0----0--0--0---0-----0---0---0--|


         PM  PM  PM        PM  PM  PM           PM  PM  PM        PM  PM  PM  
         |---3---|         |---3---|            |---3---|         |---3---|   
   Q     E   E   E   Q     E   E   E      Q     E   E   E   Q     E   E   E   
--------------------------------------|--------------------------------------|
--------------------------------------|--------------------------------------|
--10----10--10--10--12----12--12--12--|--12----12--12--12--14----14--15--14--|
---8-----8---8---8---8-----8---8---8--|--10----10--10--10--10----10--10--10--|
---8-----8---8---8---8-----8---8---8--|--10----10--10--10--10----10--10--10--|
---8-----8---8---8---8-----8---8---8--|--10----10--10--10--10----10--10--10--|

[ Tab from: http://www.guitaretab.com/m/misc-unsigned-bands/99747.html ]
       PM PM PM      PM PM PM         PM PM PM        PM  PM  PM  
       |--3--|       |--3--|          |--3--|         |---3---|   
  Q    E  E  E  Q    E  E  E     Q    E  E  E   Q     E   E   E   
------------------------------|----------------------------------|
------------------------------|----------------------------------|
--7----7--7--7--7----7--7--7--|--9----9--9--9--10----10--10--10--|
--7----7--7--7--7----7--7--7--|----------------------------------|
--5----5--5--5--5----5--5--5--|--5----5--5--5---5-----5---5---5--|
--0----0--0--0--0----0--0--0--|--0----0--0--0---0-----0---0---0--|


         PM  PM  PM        PM  PM  PM           PM  PM  PM        PM  PM  PM  
         |---3---|         |---3---|            |---3---|         |---3---|   
   Q     E   E   E   Q     E   E   E      Q     E   E   E   Q     E   E   E   
--------------------------------------|--------------------------------------|
--------------------------------------|--------------------------------------|
--10----10--10--10--12----12--12--12--|--12----12--12--12--14----14--15--14--|
---8-----8---8---8---8-----8---8---8--|--10----10--10--10--10----10--10--10--|
---8-----8---8---8---8-----8---8---8--|--10----10--10--10--10----10--10--10--|
---8-----8---8---8---8-----8---8---8--|--10----10--10--10--10----10--10--10--|


         |--3--|       |--3--|          |--3--|       |--3--|   
    Q    E  E  E  Q    E  E  E     Q    E  E  E  Q    E  E  E   
|-------------------------------|------------------------------|
|-------------------------------|------------------------------|
|*--7-------------7-------------|--3-------------5-------------|
|*--7-------------7-------------|--3-------------5-------------|
|---5-------------5-------------|--1-------------3-------------|
|--------0--0--0-------0--0--0--|-------0--0--0-------0--0--0--|


       |--3--|       |--3--|          |--3--|       |--3--|   
  Q    E  E  E  Q    E  E  E     Q    E  E  E  Q    E  E  E   
------------------------------|------------------------------|
------------------------------|------------------------------|
--7-------------7-------------|--3-------------5-------------|
--7-------------7-------------|--3-------------5-------------|
--5-------------5-------------|--1-------------3-------------|
-------0--0--0-------0--0--0--|-------0--0--0-------0--0--0--|


       |--3--|       |--3--|          |--3--|       |--3--|   
  Q    E  E  E  Q    E  E  E     Q    E  E  E  Q    E  E  E   
------------------------------|------------------------------|
------------------------------|------------------------------|
--7-------------7-------------|--3-------------5-------------|
--7-------------7-------------|--3-------------5-------------|
--5-------------5-------------|--1-------------3-------------|
-------0--0--0-------0--0--0--|-------0--0--0-------0--0--0--|


            |--3--|  |--3--|               |--3--|  |--3--|     
  Q    Q    E  E  E  E  E  E     Q    Q    E  E  E  E  E  E     
------------------------------|-------------------------------||
------------------------------|-------------------------------||
------------------------------|------------------------------*||
--3----3----2--3--2-----------|--2----2----2--3--2-----------*||
--1----1-------------3--1--0--|--0----0-------------3--1--0---||
------------------------------|-------------------------------||


        PM PM PM      PM PM PM         PM PM PM        PM  PM  PM  
        |--3--|       |--3--|          |--3--|         |---3---|   
   Q    E  E  E  Q    E  E  E     Q    E  E  E   Q     E   E   E   
-------------------------------|----------------------------------|
-------------------------------|----------------------------------|
*--7----7--7--7--7----7--7--7--|--9----9--9--9--10----10--10--10--|
*--7----7--7--7--7----7--7--7--|----------------------------------|
---5----5--5--5--5----5--5--5--|--5----5--5--5---5-----5---5---5--|
---0----0--0--0--0----0--0--0--|--0----0--0--0---0-----0---0---0--|


         PM  PM  PM        PM  PM  PM           PM  PM  PM        PM  PM  PM    
         |---3---|         |---3---|            |---3---|         |---3---|     
   Q     E   E   E   Q     E   E   E      Q     E   E   E   Q     E   E   E   4x
--------------------------------------|---------------------------------------||
--------------------------------------|---------------------------------------||
--10----10--10--10--12----12--12--12--|--12----12--12--12--14----14--15--14--*||
---8-----8---8---8---8-----8---8---8--|--10----10--10--10--10----10--10--10--*||
---8-----8---8---8---8-----8---8---8--|--10----10--10--10--10----10--10--10---||
---8-----8---8---8---8-----8---8---8--|--10----10--10--10--10----10--10--10---||


  W                   W                   W                 
-------------------|-------------------|-------------------|
-------------------|-------------------|-------------------|
-------------------|-------------------|-------------------|
--0----------------|--0----------------|--0----------------|
--0----------------|--0----------------|--0----------------|
--0----------------|--0----------------|--0----------------|


  |---3---|   |---3---|   |---3---|   |---3---|     |--3--|  |--3--|            
  E   E   E   E   E   E   E   E   E   E   E   E     E  E  E  E  E  E  H         
-------------------------------------------------|-----------------------------|
-------------------------------------------------|-----------------------------|
-------------------------------------------------|-----------------------------|
-------------------------------------------------|--0--0--0--0--0--0-----------|
--5h--8p--5p--4h--7p--4h--5h--8p--5p--4h--7p--4--|--0--0--0--0--0--0-----------|
-------------------------------------------------|--0--0--0--0--0--0-----------|


  |--3--|  |--3--|  |---3---|   |---3---|     |--3--|  |--3--|            
  E  E  E  E  E  E  E   E   E   E   E   E     E  E  E  E  E  E  H         
-------------------------------------------|-----------------------------|
-------------------------------------------|-----------------------------|
-------------------------------------------|-----------------------------|
--0--0--0--0--0--0-------------------------|--0--0--0--0--0--0-----------|
--0--0--0--0--0--0--5h--8p--5p--4h--7p--4--|--0--0--0--0--0--0-----------|
--0--0--0--0--0--0-------------------------|--0--0--0--0--0--0-----------|


  |--3--|  |--3--|  |---3---|   |---3---|     |--3--|  |--3--|            
  E  E  E  E  E  E  E   E   E   E   E   E     E  E  E  E  E  E  H         
-------------------------------------------|-----------------------------|
-------------------------------------------|-----------------------------|
-------------------------------------------|-----------------------------|
--0--0--0--0--0--0-------------------------|--0--0--0--0--0--0-----------|
--0--0--0--0--0--0--5h--8p--5p--4h--7p--4--|--0--0--0--0--0--0-----------|
--0--0--0--0--0--0-------------------------|--0--0--0--0--0--0-----------|


  |--3--|  |--3--|  |---3---|   |---3---|     |--3--|  |--3--|            
  E  E  E  E  E  E  E   E   E   E   E   E     E  E  E  E  E  E  H         
-------------------------------------------|-----------------------------|
-------------------------------------------|-----------------------------|
-------------------------------------------|-----------------------------|
--0--0--0--0--0--0-------------------------|--0--0--0--0--0--0-----------|
--0--0--0--0--0--0--5h--8p--5p--4h--7p--4--|--0--0--0--0--0--0-----------|
--0--0--0--0--0--0-------------------------|--0--0--0--0--0--0-----------|


                                                    ^        ^         
  |---3---|   |---3---|   |---3---|   |---3---|                        
  E   E   E   E   E   E   E   E   E   E   E   E     H        H         
-------------------------------------------------|--------------------|
-------------------------------------------------|--------------------|
-------------------------------------------------|--7--------6--------|
--8p--7p--5h--7p--5p--3h--5p--3p--2p--0h--2h--3--|--------------------|
-------------------------------------------------|--------------------|
-------------------------------------------------|--------------------|


  ^                                                                
  H        H            H         H            H         H         
--------------------|----------------------|----------------------|
--------------------|----------------------|----------------------|
--7--------9--------|--10--------12--------|--14--------15--------|
--------------------|----------------------|----------------------|
--------------------|----------------------|----------------------|
--------------------|----------------------|----------------------|


   |---3---|   |---3---|   |---3---|   |---3---|                              
   E   E   E   E   E   E   E   E   E   E   E   E      Q     Q     Q     Q     
--------------------------------------------------|--18----17----15----13----|
--15--18--15--14--17--14--15--18--15--14--17--14--|--------------------------|
--------------------------------------------------|--------------------------|
--------------------------------------------------|--------------------------|
--------------------------------------------------|--------------------------|
--------------------------------------------------|--------------------------|


   |---3---|   3       3       3                              
   E   E   E   Q.      Q.      Q.        Q    Q    Q    Q     
--12--13--12--------------------------|----------------------|
--------------13------11------10------|--8----6----5---------|
--------------------------------------|-----------------6----|
--------------------------------------|----------------------|
--------------------------------------|----------------------|
--------------------------------------|----------------------|


       |--3--|       |--3--|          |--3--|       |--3--|   
  Q    E  E  E  Q    E  E  E     Q    E  E  E  Q    E  E  E   
------------------------------|------------------------------|
------------------------------|------------------------------|
--7-------------7-------------|--3-------------5-------------|
--7-------------7-------------|--3-------------5-------------|
--5-------------5-------------|--1-------------3-------------|
-------0--0--0-------0--0--0--|-------0--0--0-------0--0--0--|


       |--3--|       |--3--|          |--3--|       |--3--|   
  Q    E  E  E  Q    E  E  E     Q    E  E  E  Q    E  E  E   
------------------------------|------------------------------|
------------------------------|------------------------------|
--7-------------7-------------|--3-------------5-------------|
--7-------------7-------------|--3-------------5-------------|
--5-------------5-------------|--1-------------3-------------|
-------0--0--0-------0--0--0--|-------0--0--0-------0--0--0--|


       |--3--|       |--3--|          |--3--|       |--3--|   
  Q    E  E  E  Q    E  E  E     Q    E  E  E  Q    E  E  E   
------------------------------|------------------------------|
------------------------------|------------------------------|
--7-------------7-------------|--3-------------5-------------|
--7-------------7-------------|--3-------------5-------------|
--5-------------5-------------|--1-------------3-------------|
-------0--0--0-------0--0--0--|-------0--0--0-------0--0--0--|


                                               NH   NH   NH   PH     
             |--3--|   |--3--|                 |----3----|           
  Q    Q     E  E  E   E  E  E     Q    Q      E    E    E    Q      
--------------------------------|-----------------------------------|
--------------------------------|-----------------------------------|
------------10--9--7------------|---------------------------<>6~----|
--3----3--------------10--8--7--|--2----2----<>8--<>7--<>8----------|
--1----1------------------------|--0----0---------------------------|
--------------------------------|-----------------------------------|


         PM PM PM      PM PM PM         PM PM PM        PM  PM  PM  
         |--3--|       |--3--|          |--3--|         |---3---|   
    Q    E  E  E  Q    E  E  E     Q    E  E  E   Q     E   E   E   
|-------------------------------|----------------------------------|
|-------------------------------|----------------------------------|
|*--7----7--7--7--7----7--7--7--|--9----9--9--9--10----10--10--10--|
|*--7----7--7--7--7----7--7--7--|----------------------------------|
|---5----5--5--5--5----5--5--5--|--5----5--5--5---5-----5---5---5--|
|---0----0--0--0--0----0--0--0--|--0----0--0--0---0-----0---0---0--|


         PM  PM  PM        PM  PM  PM           PM  PM  PM        PM  PM  PM    
         |---3---|         |---3---|            |---3---|         |---3---|     
   Q     E   E   E   Q     E   E   E      Q     E   E   E   Q     E   E   E   4x
--------------------------------------|---------------------------------------||
--------------------------------------|---------------------------------------||
--10----10--10--10--12----12--12--12--|--12----12--12--12--14----14--15--14--*||
---8-----8---8---8---8-----8---8---8--|--10----10--10--10--10----10--10--10--*||
---8-----8---8---8---8-----8---8---8--|--10----10--10--10--10----10--10--10---||
---8-----8---8---8---8-----8---8---8--|--10----10--10--10--10----10--10--10---||


  W                  
-------------------||
-------------------||
-------------------||
--0----------------||
--0----------------||
--0----------------||




Duration Legend
---------------
W - whole
H - half
Q - quarter
E - 8th
S - 16th
T - 32nd
X - 64th
. - note dotted
|-n-|  - n-tuplets


Tablature Legend
----------------
L - tied note
x - dead note
g - grace note
(n) - ghost note
> - accentuded note
NH - natural harmonic
AH - artificial harmonic
TH - tapped harmonic
SH - semi harmonic
PH - pitch harmonic
h - hammer on
p - pull off
b - bend
br - bendRelease
pb - preBend
pbr - preBendRelease
brb - bendReleaseBend
\n/ - tremolo bar dip
\n - tremolo bar dive
-/n - tremolo bar Release up
/n\ - tremolo bar inverted dip
/n - tremolo bar return
-\n - tremolo bar Release down
S - shift slide
s - legato slide
/ -  slide into from below or out of upwards
\ -  slide into from above or out of downwards
~ - vibrato
W - wide vibrato
tr - trill
TP - tremolo picking
T - tapping
S - slap
P - pop
< - fade in
^ - brush up
v - brush down
Related for Chroberry - Song1 tab
Advertisement will be closed in 10 seconds