Song name
# A B C D E F G H I J K L M N O P Q R S T U V W X Y Z

Misc Unsigned Bands - Regret Comes Last - Apathy tab

Help us improve GuitareTab! Take a short survey!
Apathy Intro Tab
album:The First Blast of the Drumset Against Tthe Monstrous Regiment of Women

*some parts missing..*

Guitar 1:
 |-----------------------------|
 |-----------------------------|
 |-----------------------------|
 |-----5h7---------------9p8---|
 |-8-7-----10-8-7-10-8-7-------|
 |-----------------------------|

Guitar 2:
 |---------------------------------|
 |---------------------------------|
 |-7777777-9999999-5555555-7777777-|
 |-7777777-9999999-5555555-7777777-|
 |-5555555-7777777-3333333-5555555-|
 |---------------------------------|

next is..
Guitar 1:
 |-----------------------------------|
 |-----------------------------------|
 |-----------------------------------|
 |-------------7-8-10----------------|
 |-----6h7-5h6--------6p4-5-0-6-0-7--|
 |-5-0-------------------------------|

 iLL just update this next time...
Related for Regret Comes Last - Apathy tab