Song name
# A B C D E F G H I J K L M N O P Q R S T U V W X Y Z

Misc Unsigned Bands - Wearethemassacre - Into Your Heart tab

wearethemassacre – Into your heart tab

Tuning: Standard (E A D G B E)
Capo on 2nd fret

I’m not quite sure about the chords, but I think most are correct.


Intro/Hook:  C              G        F F/E F/D C 
e|----------------------------------------------------------------||
B|---------1------------------1------1--1--1--1-------1--1---1----||
G|----------------0---------------------------0-------------------||
D|---------2------------------0------3--2--0----------0—-0h2-0----||
A|--3--3--------3-----------------------------3-------------------||
E|---------------------3--3------3--------------------------------||

        C              G            F  F/E F/D C 
e|----------------------------------------------------------------||
B|---------1-----------------1------1--1--1---1----------1--------||
G|----------------0---------------------------0--------0---0---0--||
D|---------2-----------------0------3--2--0---------0h2------2----||
A|--3--3--------3-----------------------------3-------------------||
E|---------------------3--3------3--------------------------------||

         C              G            F F/E F/D C 
e|----------------------------------------------------------------||
B|---------1------------------1------1--1--1--1-------1--1---1----||
G|----------------0---------------------------0-------------------||
D|---------2------------------0------3--2--0----------0—-0h2-0----||
A|--3--3--------3-----------------------------3-------------------||
E|---------------------3--3------3--------------------------------||

         C              G           F F/E F/D C 
e|----------------------------------------------------------------||
B|---------1-----------------1------1--1--1---1-------------------||
G|----------------0---------------------------0-------------------||
D|---------2-----------------0------3--2--0-----------------------||
A|--3--3--------3-----------------------------3-------------------||
E|---------------------3--3------3--------------------------------||

Intro/Hook melody:

e|----------------------------------------------------------------||
B|----------------------------------------------------------------||
G|-------------5-----5---5-------------------5--------------------||
D|-------------5-----5h7-5-------------------5--------------------||
A|--3--5--5/7-------------------7/8---7---5-----------------------||
E|----------------------------------------------------------------||

e|----------------------------------------------------------------||
B|----------------------------------------------------------------||
G|-------------5----5---5-----------------------------------------||
D|-------------5----5h7-5-----------------------------------------||
A|--3--5--5/7-------------------7/8---7---5---3-------------------||
E|----------------------------------------------------------------||






e|----------------------------------------------------------------||
B|----------------------------------------------------------------||
G|-------------5----5---5---------------------5-------------------||
D|-------------5----5h7-5---------------------5-------------------||
A|--3--5--5/7--------------------7/8---7---5----------------------||
E|----------------------------------------------------------------||

e|----------------------------------------------------------------||
B|----------------------------------------------------------------||
G|-------------5----5---5-----------------------------------------||
D|-------------5----5h7-5-----------------------------------------||
A|--3--5--5/7--------------------7/8---7---5---3------------------||
E|----------------------------------------------------------------||

Verse:           GLaDOS, I’ve been thinking…”
     C            G/B         Am7          C9  
e|----------------------------------------------------------------||
B|--------1--------------1-----------1------------3---------------||
G|-------------0----------------------------------3---------------||
D|--------2--------------0-----------2---------2-----2------------||
A|--3--3-----3-----2--2-----2--0--0-----0---3---------------------||
E|----------------------------------------------------------------||

    F             F/E          Dm7       Gsus-something
e|--------1-------------1------------1----------------------------||
B|-------------0---------------------------------1----------------||
G|--------2-------------0------------2-----------2----------------||
D|--3--3-----3----2--2-----2---0--0-----0-------------------------||
A|----------------------------------------------------------------||
E|-----------------------------------------3--3------3------------||

         C           G/B         Am7          C9  
e|----------------------------------------------------------------||
B|--------1-------------1-----------1------------3----------------||
G|-------------0---------------------------------3----------------||
D|--------2-------------0-----------2---------2-----2-------------||
A|--3--3-----3----2—-2-----2--0--0-----0---3----------------------||
E|----------------------------------------------------------------||

     F            F/E          Dm7
e|--------1------------1-----------1------1-----------------------||
B|-------------0--------------------------------------------------||
G|--------2------------0-----------2------2-----------------------||
D|--3--3-----3---2--2----0---0--0-----0----------0--2-------------||
A|----------------------------------------------------------------||
E|----------------------------------------------------------------||

Bridge:   ”I wanna make it up to you…”
     F                       C
e|-------1------------1-------------------------------------------|| 
B|------------0--------------------1--------1---------------------||
G|-------2------------2-----------------0--------0----------------||
D|--3--3----3----3--3----3---------2-----------2---2--------------||
A|---------------------------3--3-----3---3-----------------------||
E|----------------------------------------------------------------||  x3

    Dm7                 Gsus-something
e|----------------1-----------------------------------------------||
B|-----------1-----------1----------------------------------------||
G|-------2---------------2----------------------------------------||
D|--0-------------------------------------------------------------||
A|----------------------------------------------------------------||
E|-----------------------3----------------------------------------||

Chorus:   “I know that I’ve made a mistake…”
    C            G/B               Am     
e|----------------------------------------------------------------||
B|--------1------------1-----------1--------1---------------------||
G|-------------0------------------------2--------2----------------||
D|--------2------------0-----------2-----------2------------------||
A|--3--3-----3---2--2-----2--0--0-----0---0-----------------------||
E|-------------------------------------------------0--------------||

    F                         Fm
e|----------------------------------------------------------------||
B|--------1-------------1-----------1----------1------------------||
G|--------------2-------------------------1----------1------------||
D|--------3-------------3-----------3-------------3-----3---------||
A|----------------------------------------------------------------||
E|--1--1-----1----1--1-----1--1--1-----1-----1--------------------||

    C              E7           Am           Am/G
e|----------------------------------------------------------------||
B|--------1--------------0------------1------------1--------------||
G|-------------0--------------------------------------------------||
D|--------2--------------0------------2------------2--------------||
A|--3--3-----3------------------0--0-----0------------------------||
E|-----------------0--0-----0----------------3--3-----3-----------||

    Fmaj7                        Gsus
e|---0------------------------------------------------------------||
B|---1---------------------------1--------------------------------||
G|---2---------------------------0--------------------------------||
D|---3---------------------------0--------------------------------||
A|----------------------------------------------------------------||
E|-------------------------------3--------------------------------||

Followed by:

*half Intro/Hook + half Intro/Hook melody

*Bridge

And then
Double chorus:
    C            G/B               Am     
e|----------------------------------------------------------------||
B|--------1------------1-----------1--------1---------------------||
G|-------------0------------------------2--------2----------------||
D|--------2------------0-----------2-----------2------------------||
A|--3--3-----3---2--2-----2--0--0-----0---0-----------------------||
E|-------------------------------------------------0--------------||

    F                         Fm
e|----------------------------------------------------------------||
B|--------1-------------1-----------1----------1------------------||
G|--------------2-------------------------1----------1------------||
D|--------3-------------3-----------3-------------3-----3---------||
A|----------------------------------------------------------------||
E|--1--1-----1----1--1-----1--1--1-----1-----1--------------------||


    C              E7           Am           Am/G
e|----------------------------------------------------------------||
B|--------1--------------0------------1------------1--------------||
G|-------------0--------------------------------------------------||
D|--------2--------------0------------2------------2--------------||
A|--3--3-----3------------------0--0-----0------------------------||
E|-----------------0--0-----0----------------3--3-----3-----------||

    Fmaj7                        Gsus               G
e|---------0---------0--------------------------------------------||
B|---------------1---------1------------1------------0------------||
G|---------2------------2-----2---------0----0-------0------------||
D|---3--3------3---3----------------------------------------------||
A|----------------------------------------------------------------||
E|---------------------------------3--3----3---3--3-----3---------||

    C            G/B               Am     
e|----------------------------------------------------------------||
B|--------1------------1-----------1--------1---------------------||
G|-------------0------------------------2--------2----------------||
D|--------2------------0-----------2-----------2------------------||
A|--3--3-----3---2--2-----2--0--0-----0---0-----------------------||
E|-------------------------------------------------0--------------||

    F                         Fm
e|----------------------------------------------------------------||
B|--------1-------------1-----------1----------1------------------||
G|--------------2-------------------------1----------1------------||
D|--------3-------------3-----------3-------------3-----3---------||
A|----------------------------------------------------------------||
E|--1--1-----1----1--1-----1--1--1-----1-----1--------------------||

    C              E7           Am           Am/G
e|----------------------------------------------------------------||
B|--------1--------------0------------1------------1--------------||
G|-------------0--------------------------------------------------||
D|--------2--------------0------------2------------2--------------||
A|--3--3-----3------------------0--0-----0------------------------||
E|-----------------0--0-----0----------------3--3-----3-----------||

    Fmaj7                        Gsus
e|---0------------------------------------------------------------||
B|---1---------------------------1--------------------------------||
G|---2---------------------------0--------------------------------||
D|---3---------------------------0--------------------------------||
A|----------------------------------------------------------------||
E|-------------------------------3--------------------------------||

    Fmaj7                        Gsus
e|---0------------------------------------------------------------||
B|---1---------------------------1--------------------------------||
G|---2---------------------------0--------------------------------||
D|---3---------------------------0--------------------------------||
A|----------------------------------------------------------------||
E|-------------------------------3--------------------------------||

     Fm                          G
e|---1------------------------------------------------------------||
B|---1---------------------------0----1---3-----------------------||
G|---1---------------------------0--------------------------------||
D|---3---------------------------0--------------------------------||
A|----------------------------------------------------------------||
E|-------------------------------3--------------------------------||


Followed by:

*Intro/Hook + Intro/Hook melody with a few licks at the end, like this:

Ending Intro/Hook melody with licks:

e|----------------------------------------------------------------||
B|----------------------------------------------------------------||
G|-------------5----5---5------------------5----------------------||
D|-------------5----5h7-5------------------5----------------------||
A|--3--5—5/7-----------------7/8---7---5-------------------------||
E|----------------------------------------------------------------||

e|----------------------------------------------------------------||
B|----------------------------------------------------------------||
G|-------------5----5---5-----------------------------------------||
D|-------------5----5h7-5-----------------------------------------||
A|--3--5--5/7-----------------7/8---7---5---3---------------------||
E|----------------------------------------------------------------||

e|----------------------------------------------------------------||
B|----------------------------------------------------------------||
G|-------------5----5----5---7---8r7p5------5-5-------------------||
D|-------------5----5h7-----------------7-------------------------||
A|--3--5--5/7-----------------------------------------------------||
E|----------------------------------------------------------------||

e|----------------------------------------------3-----------------||
B|----------------------------------10--8--6----5-----------------||
G|-------------5----5----5---7------10--9--7----5-----------------||
D|-------------5----5h7-------------------------------------------||
A|--3--5--5/7-----------------------------------------------------||
E|----------------------------------------------------------------||
Tap to rate this tab
# A B C D E F G H I J K L M N O P Q R S T U V W X Y Z