Song name
# A B C D E F G H I J K L M N O P Q R S T U V W X Y Z

Misc Unsigned Bands - Gitarrensaite - Home Improvement tab

the opening credits soundtrack of Home Improvement on guitar. (german version)

standard tuning.



|-------------------------------------------------------------------------|
|----------------------9--------------------------------------------9-----|
|------8--10~---10-10--8-----8-10~---10-10--8~-----8--10~----10-10--8-----|
|---10----10~---10-10-----10--------------------10----10~----10-10--------|
|-------------------------------------------------------------------------|
|-------------------------------------------------------------------------|


|---13---13--13-13---------------------------------------13--/13~---------|
|---11b--11--9--11---------------9~--9---9--/11---11b-11b-----------------|
|-------------------10~---8--10--8~--10--8--/10---------------------------|
|------------------(10)~--------------------------------------------------|
|-------------------------------------------------------------------------|
|-------------------------------------------------------------------------|


|---11--8--6h8p6----------------------------------------------------------|
|---------------9--9-6---9~------9--/11~-\\\---9--9-----------------------|
|------------------------8~---10-8--/10~-\\\---10-10p8--------------------|
|------------------------------------------------------10--8p6------------|
|--------------------------------------------------------------8-8~-------|
|-------------------------------------------------------------------------|

|---------------------x10-10--9-9-8-8-7-7-x-------------------------------|
|---9~--9---9--/11----x9--9---8-8-7-7-6-6-x-------------------------------|
|---8~--10--8--/10----x10-10--9-9-8-8-7-7-x------4--6--8~---\\\-----------|
|-----------------------------------------x------6--8--10~--\\\-----------|
|-----------------------------------------x------6--8--10~--\\\-----------|
|-----------------------------------------x-------------------------------|

that's it -
have fun & keep on rocking 

greetz gitarrensaite
Tap to rate this tab
# A B C D E F G H I J K L M N O P Q R S T U V W X Y Z