Song name
# A B C D E F G H I J K L M N O P Q R S T U V W X Y Z

Misc Unsigned Bands - Blake Enloe - Deep tab

e------------------------------------------------------|
b------------------------------------------------------|
g------------------------------------------------------|
d--------4--------4----------4--------4------4------4--|
a-----2---------2---------3---------2------0------0----|
E--0---------3---------0----------3------3------2------|

e------------------------------------------|
b------------------------------------------|
g------------0--------------------0--------|
d-------4-------4----4-------4-------4---4-|
a----2----2--------2------2----2-------2---|
E--0--------------------0------------------|

e-------------------------------------------|
b-------------------------------------------|
g-------------0---------------------0-------|
d--------4-------4----4-------4-------4---4-|
a---0-0----0--------0-----00-----0------0---|
E-------------------------------------------|

e-----------------------------------------------------|
b-----------------------------------------------------|
g----------0--------------------------0---------------|
d------4------4------4-----------4--------4-----4-----|
a---2----2--------2-----------2-----2--------2--------|
E-0------------------------3--------------------------|

2x
e---------------------------------------------------------|
b---------------------------------------------------------|
g---------------------------------------------------------|
d-------4----5----5-------------------4---5----7----5-----|
a---------2----2-----3---2-0--45--------2---2----5-----3--|
E---00------------------------23---00---------------------|


e---------------------------------------------------------------------------|
b---------------------------------------------------------------------------|
g---------------------------------------------------------------------------|
d---------------------------------------------------------------------------|
a---5-4--2------------------------------------------------------------------|
E---3-2--0------------------------------------------------------------------|
Tap to rate this tab
 
# A B C D E F G H I J K L M N O P Q R S T U V W X Y Z