Song name
# A B C D E F G H I J K L M N O P Q R S T U V W X Y Z

Misc Unsigned Bands - South Of Liberty - Haunting tab

South Of Liberty - Haunting

i tabbed up the chorus of my band's ( south of liberty ) first song ( the haunting ).

www.myspace.com/southofliberty

thanks.

Chorus

  OhOhOhOh i'll watch you  OhOhOhOh i'll feel you OhOhOhOh
e--9-9-9-9------------------7-7-7-7----------------5-5-5-5--|
B--9-9-9-9------------------7-7-7-7----------------5-5-5-5--|
G--7-7-7-7------------------5-5-5-5----------------3-3-3-3--|
D-----------------------------------------------------------|
A-----------------------------------------------------------|
E-----------------------------------------------------------|

i'll haunt you        i'll never leave OhOhOhOh i'll watch you OhOhOhOh
e--------------------------------------7-7-7-7------------------5-5-5-5-|
B--------------------------------------7-7-7-7------------------5-5-5-5-|
G--------------------------------------5-5-5-5------------------3-3-3-3-|
D------------555544443--------------------------------------------------|
A------------555544443--------------------------------------------------|
E------------555544443--------------------------------------------------|

i'll see you OhOhOhOh ill haunt you
e------------3-3-3-3-------------333322221-|
B------------3-3-3-3-------------333322221-|
G----------- 1-1-1-1-------------333322221-|
D------------------------------------------|
A------------------------------------------|
E------------------------------------------|


 I'LL NEVER LEAVE
e ----------------------------------------------------------------------------|
B-----------------------------------------------------------------------------|
G-----------------------------------------------------------------------------|
D--------------55 5455--55 545------------55 5455--55 545---------------------|
A--------------55 5455--55 545------------55 5455--55 545---------------------|
E- ------------55 5455--55 545--16H17--55 5455--55 545--12H13-----------------|


tabbed by hainzey
Tap to rate this tab
# A B C D E F G H I J K L M N O P Q R S T U V W X Y Z