Song name
# A B C D E F G H I J K L M N O P Q R S T U V W X Y Z

Misc Unsigned Bands - Decibel - Naagin tab

This is my interpretation of Naagin By Decibel...
Not the toughest song i hav played...but it is a little tricky!!
I havent got d whole song tabbed bt here it is!!
Listen to the song to get the timing right...

e|---------------------------------------------------------------------------|
B|---------------------------------------------------------------------------|
G|---------------------------------------------------------------------------|
D|---------------------------------------------------------------------------|            
A|----5-5-5-5-5----2-2-2-2----------(Playthisparttwice)-7-7-7--7-------------|
E|----3-3-3-3-3----0-0-0-0--0-5-0-5---------------------5-5-5--9-------------|
       P.M.----|   P.M.---|                             P.M.-|

(continues tap on the 12th fret of d string ur playing...bracket indicates it on d E string)

e|-----------7-7----------------7-7-----------------------------------------|
B|-----7-7-9-----11-9-7----7-7-9-----11-9-7---9-10-9-7--9-10-9-7---9-10-9-7-|
G|--------------------------------------------------------------------------|
D|--------------------------------------------------------------------------|
A|--------------------------------------------------------------------------|
E|--------------------------------------------------------------------------|
    
(Dont forget to tap while playin each note...Tap On The 12th fret)            

e|---------------------------------------------------------------------------|
B|-9-9-7h9-7/5--7-9-9-10-10-9-9-7-7-7-7-7-7-7-7------------------------------|
G|---------------------------------------------------------------------------|
D|---------------------------------------------------------------------------|
A|---------------------------------------------------------------------------|
E|---------------------------------------------------------------------------|
    
(Dont forget to tap while playin each note...Tap On The 12th fret)

e|---------------------------------------------------------------------------|
B|-9-7-10-7-9-7/5-7-5---9-7-10-7-9-7/5-7~------------------------------------|
G|---------------------------------------------------------------------------|
D|---------------------------------------------------------------------------|
A|---------------------------------------------------------------------------|
E|---------------------------------------------------------------------------|

made By:- shrey
Tap to rate this tab
# A B C D E F G H I J K L M N O P Q R S T U V W X Y Z