Song name
# A B C D E F G H I J K L M N O P Q R S T U V W X Y Z

Misc Unsigned Bands - The Waiting Ends - Reign Of Hate tab

These are my guitar parts (JJ) and are also mostly the lead parts.
anything I haven't tabbed, is easy enough to figure out by ear.

INTRO
D||--------------------------------|
A||--------------------------------|
F||--------------------------------|
C||---7---5-----------7----5---8---|
G||000--00--005----000--00--00-----|
C||000--00--00-----000--00--00-----|
___________________________________________
D||-----------------------------------|
A||-----------------------------------|
F||-----------------------------------|
C||---7---5-----------7----5----------|
G||-----------5----------------7-078--|
C||888--88--88-----888--88--88--------|
~~~~~~~~~~~~~~~~~~~~~~~~~~~~~~~~~~~~~~~~~~~~~~~~~

SHORT BRIDGE
D||--------------------------------|
A||--------------------------------|
F||--------------------------------|
C||--------------------------------|
G||000-000--0-0--------------------|
C||000-000--0-0--------------------|
~~~~~~~~~~~~~~~~~~~~~~~~~~~~~~~~~~~~~~~~~~~~~~~~

2-STEP PART
D||--------------------------------------|
A||--------------------------------------|
F||--------------------------------------|
C||---------------------8570-------------|
G||-------------------------8047---------|
C||0000---0000-0000-000------------------|
-2x-
~~~~~~~~~~~~~~~~~~~~~~~~~~~~~~~~~~~~~~~~~~~~~~~~

BREAKDOWN
D||------------------------------------------|
A||------------------------------------------|
F||---------------------10-14|14|15|14-------| (octaves)
C||------------------------------------------|
G||---------------------8-12|12|13|12--------|
C||0000---0000-0000-000----------------------|
_______________________________________________________
D||-----------------------------------|
A||-----------------------------------|
F||-----------------10-9-6------------| (more octaves)
C||-----------------------------------|
G||-----------------8-7-4-------------|
C||0000---0000-0000-------------------|

~~~~~~~~~~~~~~~~~~~~~~~~~~~~~~~~~~~~~~~~~~~~~~~~~

WEIRD METAL 2-STEP
D||---------------------------------------------------------------------|
A||---------------------------------------------------------------------|
F||---------------------------------------------------------------------|
C||-------------------------------------------------87----87----87------|
G||0---0---0---0---0585|0585|0474|0474---------------8585--8585--85-----|
C||0---0---0---0----------------------0---0-----0--0--------------------|
____________________________________________________________________________________________
D||--------------------------------------------------|..
A||--------------------------------------------------|..
F||--------------------------------------------------|..(sweep picking part)
C||--------------------------------------------------|..
G||0---0---0---0---85858585|74747474-----------------|..
C||0---0---0---0---------------------0---0-----0--0--|.
~~~~~~~~~~~~~~~~~~~~~~~~~~~~~~~~~~~~~~~~~~~~~~~~~~~~~~~
SWEEP PICKING PART (
D||---9129--------131713---|
A||--11---11-----15----15--|
F||-10------10--14------14-|
C||8---------8-12--------12|
~~~~~~~~~~~~~~~~~~~~~~~~~~~~~~~~~~~~~~~~~~~~~~~~~~~~~~~
WEIRD METAL 2-STEP continued
D||----------------------------------------------------------------------------------|
A||----------------------------------------------------------------------------------|
F||-------------------14------------12------------------------14-----------15--------|
C||-------------0|12|15-15|12|0|11|14-14|11-------------0|12|15-15|12|0|12|15-15|12--|
G||0---0---0---0---------------------------------------------------------------------|
C||0---0---0---0-------------------------0---0-----0--0------------------------------|
___________________________________________________________________________________
D||--------------------------------------------------------------------------------|
A||--------------------------------------------------------------------------------|
F||-------------------14------------12------------------------14-----------15------|
C||-------------0|12|15-15|12|0|11|14-14|11-------------0|12|15-15|12|0|12|15------|
G||0---0---0---0-------------------------------------------------------------------|
C||0---0---0---0-------------------------0---0-----0--0----------------------------|
~~~~~~~~~~~~~~~~~~~~~~~~~~~~~~~~~~~~~~~~~~~~~~~~~~~~~~~~~~~~~~~~~~~~~

UNDEROATH BREAKDOWN
D||--00000000000-----0000000000--------|
A||--66666666666-----6666666666--------|
F||------------------------------------|
C||------------------------------------|
G||00-----------0-000-----------00 10--|
C||00-----------0-000-----------00 10--|
_________________________________________________
D||8
A||10
F||10 (chord thing)
C||8
G||8
C||8
~~~~~~~~~~~~~~~~~~~~~~~~~~~~~~~~~~~~~~~~~~~~~~~~~~~~~~~~~~~~~~~~~~~~~

END BREAKDOWN
D||--------------------------------|
A||--------------------------------|
F||--------------------------------|
C||--------------------------------|
G||--------------------------------|
C||00000---00000-----0---0-0-00-00-|
____________________________________________________
D||-----------------0--0--0--------|               |0--0--0----|
A||-----------------6--6--6--------|               |8--8--8----|
F||-----------------7--7--7--------| (2nd gtr) |9--9--9--------|
C||-----------------0--0--0--------|               |0--0--0----|
G||--------------------------------|                |----------|
C||00000---00000-------------------|              |------------|
~~~~~~~~~~~~~~~~~~~~~~~~~~~~~~~~~~~~~~~~~~~~~~~~~~~~~~~~~~~~~

ENDING
D||--------------------------------|
A||--------------------------------|
F||--------------------------------|
C||--------5------7------10-----15-|
G||0-------3------3------8------0--|
C||0-------2------3------8------0--|
Tap to rate this tab
# A B C D E F G H I J K L M N O P Q R S T U V W X Y Z