Guitaretab - guitar tabs
Song name
# A B C D E F G H I J K L M N O P Q R S T U V W X Y Z

Misc Unsigned Bands - The Mighty Boosh - I Did A Shit On Your Mum tab

This is the song 'I Did A Shit On Your Mum' in the Mighty Boosh Episode 'Journey To The 
Of The Punk'.

Riff 1:

e|------------------|
B|------------------|
G|------------3-----|
D|5---5-5--3--3--3--|
A|5---5-5--3--1--3--|
E|3---3-3--1-----1--|

Or
[ Tab from: http://www.guitaretab.com/m/misc-unsigned-bands/99946.html ]
e|-----------------|
B|-----------------|
G|-----------------|
D|5---5-5--3--8--3-|
A|5---5-5--3--8--3-|
E|3---3-3--1--6--1-|


Riff 2:

e|---|
B|---|
G|---|
D|-5-|
A|-5-|
E|-3-|

Order of Play:

Riff 1 x3
Riff 2x1
Riff 1x3
Riff 2x1
Riff 1x3
Riff 2x1

Enjoy!
Related for The Mighty Boosh - I Did A Shit On Your Mum tab
Advertisement will be closed in 10 seconds