Song name
# A B C D E F G H I J K L M N O P Q R S T U V W X Y Z

Misc Unsigned Bands - Gravity Effect - Drink tab

Hey this is my bands tab so its obviously 100% right:P (Btw this is the rythem part)

INTRO
E------------------------  ---------------------  --------------------|
B------------------------  ---------------------  --------------------|
G----7-----7-7-7--7-7-7--  ---------------------  --------------------|
D----7-0-0-7-7-7--7-7-7--X2-5-0-0-5-5-5--5-5-5--X2-4-0-0-4-4-4--4-4-4-|
A----5-0-0-5-5-5--5-5-5--  -5-0-0-5-5-5--5-5-5--  -4-0-0-4-4-4--4-4-4-|
D------0-0-0-0-0--0-0-0--  -5-0-0-5-5-5--5-5-5--  -4-0-0-4-4-4--4-4-4-|
           * * *  * * *           * * *  * * *           * * *  * * *
                            repeat once again
VERSE
E-----------------------------------------------|
B-----------------------------------------------|
G-----------------------------------------------|
D----0~--2-0-0-4-0-0-5-0-0-4-0-0-2-0-2-0--X3-0~-|
A----0~--------------------------------------0~-|
D----0~--------------------------------------0~-|

CHORUS
E------------------------  ------------------------------------------|
B------------------------  ------------------------------------------|
G----7-----7-7-7--7-7-7--  -4-4-4-4-4-4-4-4-4-4-4-4-4-4-4-4--7-----9-|
D----7-0-0-7-7-7--7-7-5--X2-4-4-4-4-4-4-4-4-4-4-4-4-4-4-4-4--5-X16-7-|X16
A----5-0-0-5-5-5--5-5-5--  -2-2-2-2-2-2-2-2-2-2-2-2-2-2-2-2--5-----7-|
D------0-0-0-0-0--0-0-0--  ----------------------------------5-----7-|
           * * *  * * *


INSTRUMENTAL HARMONY
E-----------------------------------------------------------------------|
B-----------------------------------------------------------------------|
G-----------------------------------------------------------------------|
D----0~--2-0-0-4-0-0-5-0-0-4-0-0-2-0-2-0--X6--5-0-0-0-5-0-0-0-9-0-0-0-7-|X8
A----0~---------------------------------------9-0-0-0-9-0-0-0-5-0-0-0-7-|
D----0~-----------------------------------------0-0-0---0-0-0---0-0-0-7-|
                                                * * *   * * *   * * * *
                                   THE END
Tap to rate this tab
# A B C D E F G H I J K L M N O P Q R S T U V W X Y Z