Song name
# A B C D E F G H I J K L M N O P Q R S T U V W X Y Z

Misc Unsigned Bands - Prototype - Guerilla Warfare tab

Band:Prototype
Song:Guerilla Warfare
Album:Guilty Of Treason

from new album, totally awesome
if you ever listen to Lostprophets SHINOBI VS DRAGON NINJA,
sounds an awful lot like that, still cool

tuning-C#, G#, C#, F#, A#, D#                 second time instead 
.= distorted palm mute                           of the last bit*
Intro (clean) x2                                      do this\\//
|----------------------------------------------------------|------|
|----------------------------------------------------------|------|
|-----0------0-----0------0-----0------0-----0-------------|-7b~--|
|----7------7-----7------7-----7------7-----7--------------|-long-|
|-55----55-5---55----55-5---88----88-8---77----*77-5h7-7b*-|-bend-|
|----------------------------------------------------------|------|

Intro pt2 (distorted) x2
|-----------------------------------------------------------------|
|-----------------------------------------------------------------|
|----------------------------------------5x-----5x-----7x---------|
|----h1p0-----h1p0----h1p0-----h1p0------3x-----3x-----5x---------|
|----h1p0-----h1p0----h1p0-----h1p0------3x-----3x-----5x-----6p5-|
|-00-h1p0-00-0h1p0-00-h1p0-00-0h1p0--00-03x-00-03x-00-05x-00-06p5-|

Verse (clean w/effects) continous strumming
|-----------------------------------------------------------|
|-----------------------------------------------------------|
|-222222222222222222222222222222222222222222--22222222222---|
|-xxxxxxxxxxxxxxxxxxxxxxxxxxxxxxx00033322200220003332220022-|
|-0000333300003333000033330003333-----------22-----------22-|
|-------------------------------------------22-----------22-|
                                            ..           ..

Pre-Chorus (slightly distorted)
|-----------|
|-----------|
|-----0^0.5-|
                    
Tap to rate this tab
# A B C D E F G H I J K L M N O P Q R S T U V W X Y Z