Song name
# A B C D E F G H I J K L M N O P Q R S T U V W X Y Z

Misc Unsigned Bands - The Ripperz - Distance Long tab

----------------------------------------------------------------------------
	              Distance Long - The Ripperz
----------------------------------------------------------------------------
Tabbed by: Steven "Stiffy" Andres
Email: guitar-freak92@hotmail.com
The Ripperz online: www.myspace.com/theripperz

Tuning: Standard (EADGBe)

Intro 2X
e|----------------|--------------------------------------------------------|
B|----------------|--------------------------------------------------------|
G|-77-7-7-7-7-7-7-|--------------------------------------------------------|
D|-77-7-6-7-6-7-6-|-7-7-7-7-7-7-7-7----------------------------------------|
A|----------------|-7-7-7-7-7-7-7-7----------------------------------------|
E|----------------|--------------------------------------------------------|

Verse 1
  Phone rings it's ten o'clock    I've been waiting    since yesterday
e|---------------------|----------------|----------------------|-----------|
B|---------------------|----------------|----------------------|-----------|
G|-2-------------------|----------------|------2----2----------|-----------|
D|-2-------------------|---2------------|------2------2--------|---2-22222-|
A|-0-------------------|---2------------|------0---------------|---2-22222-|
E|---------------------|---0------------|----------------------|---0-00000-|
                                                                     *****
       You voice offends my heart    even though you're  so far a way
e|----------------------|---------------|----------------------|-----------|
B|----------------------|---------------|----------------------|-----------|
G|-2--------------------|---------------|---2------------------|-----------|
D|-2--------------------|-----2---------|---2------------------|---2-22222-|
A|-0--------------------|-----2---------|---0------------------|---2-22222-|
E|----------------------|-----0---------|----------------------|---0-00000-|
                                                                     *****
Pre Verse
    Hold your picture in my hand           It speaks a thousand words
e|-------------------------------------------------------------------------|
B|-------------------------------------------------------------------------|
G|-6-------------------------2-----------6----------------------2----------|
D|-6- Strum -----------------2- Strum ---6- Strum --------------2- Strum --|
A|-4-------------------------0-----------4----------------------0----------|
E|-------------------------------------------------------------------------|
 So we'll trip   to never never land
e|-------------------------------------------------------------------------|
B|-------------------------------------------------------------------------|
G|---------6---------------2-----------------------------------------------|
D|---------6- Strum -------2- Strum ---------------------------------------|
A|---------4---------------0-----------------------------------------------|
E|-------------------------------------------------------------------------|

Chorus
   Breaks my heart to say good bye  Just let me finish singing this lullabye
e|-------------------------------------------------------------------------|
B|-------------------------------------------------------------------------|
G|---9----------------------4---------------------6---------------------2--|
D|---9----------------------4---------------------6---------------------2--|
A|---7----------------------2---------------------4---------------------0--|
E|-------------------- Strum all chords -----------------------------------|
  Close your eyes now darling sleep  I'll dream of you, if you dream of me
e|-------------------------------------------------------------------------|
B|-------------------------------------------------------------------------|
G|---9-------------------------4---------------------6-----------------2---|
D|---9-------------------------4---------------------6-----------------2---|
A|---7-------------------------2---------------------4-----------------0---|
E|-------------------- Strum all chords -----------------------------------|

Intro 2X
e|-------------------------------------------------------------------------|
B|-------------------------------------------------------------------------|
G|-77-7-7-7-7-7-7----------------------------------------------------------|
D|-77-7-6-7-6-7-6-7-7-7-7-7-7-7-7------------------------------------------|
A|----------------7-7-7-7-7-7-7-7------------------------------------------|
E|-------------------------------------------------------------------------|

Verse 1
  The only thing that could make this better  is if you were here with me
e|---------------------|----------------------|-------------------|--------|
B|---------------------|----------------------|-------------------|--------|
G|-2-------------------|----------------------|------2----2-------|--------|
D|-2-------------------|----------------2-----|------2------2-----|-222222-|
A|-0-------------------|----------------2-----|------0------------|-222222-|
E|---------------------|----------------0-----|-------------------|-000000-|
                                                                     *****
  The only times I get to see you        Are too few        Too far between
e|---------------------|----------------------|------------------|---------|
B|---------------------|----------------------|------------------|---------|
G|-2-------------------|----------------------|---2----2---------|---------|
D|-2-------------------|---2------------------|---2------2-------|-2-22222-|
A|-0-------------------|---2------------------|---0--------------|-2-22222-|
E|---------------------|---0------------------|------------------|-0-00000-|
                                                                          *****
Pre Verse
    Hold your picture in my hand           It speaks a thousand words
e|-------------------------------------------------------------------------|
B|-------------------------------------------------------------------------|
G|-6-------------------------2-----------6----------------------2----------|
D|-6- Strum -----------------2- Strum ---6- Strum --------------2- Strum --|
A|-4-------------------------0-----------4----------------------0----------|
E|-------------------------------------------------------------------------|
 So we'll trip   to never never land
e|-------------------------------------------------------------------------|
B|-------------------------------------------------------------------------|
G|---------6---------------2-----------------------------------------------|
D|---------6- Strum -------2- Strum ---------------------------------------|
A|---------4---------------0-----------------------------------------------|
E|-------------------------------------------------------------------------|

Chorus
   Breaks my heart to say good bye  Just let me finish singing this lullabye
e|-------------------------------------------------------------------------|
B|-------------------------------------------------------------------------|
G|---9----------------------4---------------------6---------------------2--|
D|---9----------------------4---------------------6---------------------2--|
A|---7----------------------2---------------------4---------------------0--|
E|-------------------- Strum all chords -----------------------------------|
  Close your eyes now darling sleep   I'll dream of you, you dream of me
e|-------------------------------------------------------------------------|
B|-------------------------------------------------------------------------|
G|---9-------------------------4---------------------6-----------------2---|
D|---9-------------------------4---------------------6-----------------2---|
A|---7-------------------------2---------------------4-----------------0---|
E|-------------------- Strum all chords -----------------------------------|

Interlude
e|-------------------------------------------------------------------------|
B|-------------------------------------------------------------------------|
G|--------------------------2-------------------------------------------2--|
D|---2----------------------2---------------------2---------------------2--|
A|---2----------------------0---------------------2---------------------0--|
E|---0----------------- Strum all chords ---------0------------------------|

Chorus
   Breaks my heart to say good bye  Just let me finish singing this lullabye
e|-------------------------------------------------------------------------|
B|-------------------------------------------------------------------------|
G|---9----------------------4---------------------6---------------------2--|
D|---9----------------------4---------------------6---------------------2--|
A|---7----------------------2---------------------4---------------------0--|
E|-------------------- Strum all chords -----------------------------------|
  Close your eyes now darling sleep   I'll dream of you, you dream of me
e|-------------------------------------------------------------------------|
B|-------------------------------------------------------------------------|
G|---9-------------------------4---------------------6-----------------2---|
D|---9-------------------------4---------------------6-----------------2---|
A|---7-------------------------2---------------------4-----------------0---|
E|-------------------- Strum all chords -----------------------------------|

2X
e|-------------------------------------------------------------------------|
B|-------------------------------------------------------------------------|
G|--9-------------------------4--------------------------------------------|
D|--9-------------------------4--------------------------------------------|
A|--7-------------------------2--------------------------------------------|
E|-------------------------------------------------------------------------|
   Da Da Da Da Da Dadadadada  Da Da Da Da Da Dadadadada
2X
e|-------------------------------------------------------------------------|
B|-------------------------------------------------------------------------|
G|--6-------------------------4--------------------------------------------|
D|--6-------------------------4--------------------------------------------|
A|--4-------------------------2--------------------------------------------|
E|-------------------------------------------------------------------------|
   Da Da Da Da Da Dadadadada  Da Da Da Da Da Dadadadada

| /  slide up
| \  slide down
| h  hammer-on
| p  pull-off
| ~  vibrato
| +  harmonic
| x  Mute note
===============================================================================
Tap to rate this tab
# A B C D E F G H I J K L M N O P Q R S T U V W X Y Z