Song name
# A B C D E F G H I J K L M N O P Q R S T U V W X Y Z

Misc Wwf - Road Dogg tab

WWF/WWE Themes - Road Dogg

Tuning: Standard
Easy To Play And Ur Enjoy Playing It If U Like Wrestling

---------------------------------------------------------------------------|
---------------------------------------------------------------------------|
---------------------------------------------------------------------------|
-2-2--------2--------------------------------------------------------------|
-2-2--------2------------------------1/12----------------------------------|
-0-0--3b----0--------------------------------------------------------------|
Intro - Play This Four Times Before U Do The Slide Then Play

---------------------------------------------------------------------------|
---------------------------------------------------------------------------|
---------------------------------------------------------------------------|
-2-2--------2--x-----------------------------------------------------------|
-2-2--------2--x-----------------------------------------------------------|
-0-0--3b----0--x-----------------------------------------------------------|
Play After Slide And Play This Eight Times Quickly Then Play

----------------------------------------------------------------------------|
----------------------------------------------------------------------------|
-5--------------------------------------------------------------------------|
-5--5---2-------------------------------------------------------------------|
-3--5---2-------------------------------------------------------------------|
----3---0-------------------------------------------------------------------|
Play This Four Times Then Back To Intro And Repeat

Easy And Fun

Enjoy!!
Tap to rate this tab
 
# A B C D E F G H I J K L M N O P Q R S T U V W X Y Z