Song name
# A B C D E F G H I J K L M N O P Q R S T U V W X Y Z

Misc Wwf - Jeff Hardy Old Theme tab

-------------------------------------------------------------------------------
                 JEFF HARDY OLD THEME(NOT 09) - MISC WWF/WWE
-------------------------------------------------------------------------------
Tabbed by: 2guitargod4
Email: sam.rocks.123@hotmail.com

Tuning: DROP D (DADGBe)
INTRO = FEED BACK then:
 (vvv this part keeps repeating through song)
e|-------------------------------------------------------|
B|----5hl------------------------------------------------|
G|-7--5hl-----------------------------------17br~~~W~~~--|
D|--7----------------------------------------------------|
A|-------------------------------------------------------|
E|-------------------------------------------------------|

MAIN RYTHM(starts half way through intro) X4 (i think)
e|----------------------------------------------------------------|
B|----------------------------------------------------------------|
G|----------------------------------------------------------------|
D|-0-3-0-5-0-3-0-0-3-0-0-5-0-3-0-0-0-3-0-5-0-3-0-0-3-0-0-5-0-3-0--|
A|-0-3-0-5-0-3-0-0-3-0-0-5-0-3-0-0-0-3-0-5-0-3-0-0-3-0-0-5-0-3-0--|
E|-0-3-0-5-0-3-0-0-3-0-0-5-0-3-0-0-0-3-0-5-0-3-0-0-3-0-0-5-0-3-0--|
   .   .   .     .   . .   .     . .   .   .     .   . .   .
LAST TIME ADD THIS
e|---------------------------------------------------------------------------------|
B|---------------------------------------------------------------------------------|
G|---------------------------------------------------------------------------------|
D|-5-4-3-2-------------------------------------------------------------------------|
A|-5-4-3-2-------------------------------------------------------------------------|
E|-5-4-3-2-------------------------------------------------------------------------|
   . . . .
2ND PART(rythm over solo): X4: then back to main part X4.
e|---------------------------------------------------------------------------------------|
B|---------------------------------------------------------------------------------------|
G|---------------------------------------------------------------------------------------|
D|-0-0-0-3-0-0-0-6-5-3-------------------------------------------------------------------|
A|-0-0-0-3-0-0-0-6-5-3-------------------------------------------------------------------|
E|-0-0-0-3-0-0-0-6-5-3-------------------------------------------------------------------|
   . . .   . . .
You could also choose to play the 2ND PART like this:
e|---------------------------------------------------------------------------------------|
B|---------------------------------------------------------------------------------------|
G|---------------------------------------------------------------------------------------|
D|-0-0-0-3-0-0-0-7-5-3-------------------------------------------------------------------|
A|-0-0-0-3-0-0-0-7-5-3-------------------------------------------------------------------|
E|-0-0-0-3-0-0-0-7-5-3-------------------------------------------------------------------|
   . . .   . . .
I like the other way better but its up to you.

SOLO (over 2ND PART)
e|--------------------------------------------------------------|
B|--------------------------------------------------------------|
G|-12br-12br-12b12b12b12br-12br-12br-10-------12br-12-10h12-10--|
D|--------------------------------------12-12-------------------|
A|--------------------------------------------------------------|
E|--------------------------------------------------------------|
                            TREMOLO PICK
e|-----------------------------------------------------------------------|
B|--------------------/18-18-18-18-18-18-18-18-18-15~---13b-13b-13b-13b--|
G|-12br-12-10h12-10~-----------------------------------------------------|
D|-----------------------------------------------------------------------|
A|-----------------------------------------------------------------------|
E|-----------------------------------------------------------------------|
BACK TO MAIN PART AND THEN GO THROUGH THE WHOLE SONG AGAIN AND AGAIN AND AGAIN. IF YOU 
LISTEN TO THE WHOLE SONG IT ACTUALLY JUST KEPPS REPEATING THE SAME THING OVER AND OVER 
LISTEN TO THE SONG TO FIND OUT HOW TO TIME ALL THE BENDS PROPERLY IN THE SOLO AND STUFF. ENJOY

| b  bend
| br bend then return
| .  palm mute
|~~W~~ wide verbrato
| hl hold note
| /  slide up
| \  slide down
| h  hammer-on
| p  pull-off
| ~  vibrato
| +  harmonic
| x  Mute note
===============================================================================
Tap to rate this tab
# A B C D E F G H I J K L M N O P Q R S T U V W X Y Z