Song name
# A B C D E F G H I J K L M N O P Q R S T U V W X Y Z

Misc Wwf - Bret Hart Theme tab

-------------------------------------------------------------------------------
			    Bret Hart theme - WWF ( misc )
-------------------------------------------------------------------------------
Tabbed by: coDyDaTallGuy

Email: coDyDaTallGuy@yahoo.com

Tuning: standard


                             RHYTHM

e|---------------------------------------------------------------------------|
B|---------------------------------------------------------------------------|
G|---------------------------------------------------------------------------|
D|---------------------------------------------------------------------------|
A||-2-2-2-2-2-2-2-2-2-2-2-2--------------------------------------------------|
E||-0-0-0-0-0-0-0-0-0-0-0-0--------------------------------------------------|


                           LEAD

E||------------|-1----2---2-0-|-7-10-7-12-7-10-7-12-7-10-7-12-10-7-|-3---2---|
B||------------|-0----3---3---|------------------------------------|-3---3---|
G||-------0----|--------------|------------------------------------|---------|
D||-0--2-----2-|--------------|------------------------------------|---------|
A||------------|--------------|------------------------------------|---------|
E||------------|--------------|------------------------------------|---------|
Tap to rate this tab
 
# A B C D E F G H I J K L M N O P Q R S T U V W X Y Z