Song name
# A B C D E F G H I J K L M N O P Q R S T U V W X Y Z

Misc Wwf - Raven Theme tab

-------------------------------------------------------------------------------
			     Raven's Theme - WCW
-------------------------------------------------------------------------------
Tabbed by: Henke
Email: henrik.jonsson@jvbit.se

World Championship Wrestling (WCW) - Now World Wrestling Entertainment, Inc.

Main riff:

e|-----------------------------------------|
B|-----------------------------------------|
G|-----------------------------------------|
D|-----------------------------------------|
A|-----------------------3-----3-----------|
E|--0--3--0--3--0--0--5-----5-----3--3--2--|

Second part:

e|-----------------------------------------------------------------------|
B|-----------------------------------------------------------------------|
G|------------------------5-------------------------------------------5--|
D|--2---------------------5---------------------2---------------------5--|
A|--2---------------------3---------------------2---------------------3--|
E|--0-------------------------------------------0------------------------|
Tap to rate this tab
# A B C D E F G H I J K L M N O P Q R S T U V W X Y Z