Song name
# A B C D E F G H I J K L M N O P Q R S T U V W X Y Z

Misc Wwf - Triple H Theme tab

Here is a version of The Game that you can read:  ^^

Gtr. I
e|--------|---------|---------|---------|
B|--------|---------|---------|---------|
G|--------|---------|---------|---------|
D|-2------|-2------2|2--------|-2-------|
A|-2------|-2------2|2--------|-2-------|
E|-0------|-0------0|0--------|-0-------|



Gtr.I
e|-------------------------|-------------------------|
B|-------------------------|-------------------------|
G|-------------------------|-------------------------|
D|-2-2-2-----2-2-2---------|-2-2-2-----2-2-2---------|
A|-2-2-2-----2-2-2---------|-2-2-2-----2-2-2---------|
E|-0-0-0---x-0-0-0-----x---|-0-0-0---x-0-0-0-----x---|

Gtr.II
e|-------------------------|-------------------7----7|
B|-------------------------|------------------8-8--8-|
G|-------------------------|-------------------------|
D|-------------------------|-------------------------|
A|-------------------------|-------------------------|
E|-------------------------|-------------------------|



Gtr.I
e|-------------------------|-------------------------|
B|-------------------------|-------------------------|
G|-------------------------|-------------------------|
D|-2-2-2-----2-2-2---------|-2-2-2-----2-2-2---------|
A|-2-2-2-----2-2-2---------|-2-2-2-----2-2-2---------|
E|-0-0-0---x-0-0-0-----x---|-0-0-0---x-0-0-0-----12s-|

Gtr.II
e|-------------------------|-------------------------|
B|-8-----------------------|-------------------------|
G|-------------------------|-------------------------|
D|-------------------------|-------------------------|
A|-------------------------|-------------------------|
E|-------------------------|-------------------------|



Gtr.I
e|-----------------|-----------------|-----------------|---------------|
B|-----------------|-----------------|-----------------|---------------|
G|-------------5-4-|-------------5-4-|-------------5-4-|---------------|
D|-2-2-5-4-222-5-4-|-2-2-5-4-222-5-4-|-2-2-5-4-222-5-4-|-2-2-5-4-------|
A|-2-2-5-4-222-3-2-|-2-2-5-4-222-3-2-|-2-2-5-4-222-3-2-|-2-2-5-4-------| 2x 
E|-0-0-3-2-000-----|-0-0-3-2-000-----|-0-0-3-2-000-----|-0-0-3-2-------|



Gtr.I
e|---------|---------|
B|---------|---------|
G|---------|---------|
D|-2---5-7-|-2---7-5-|
A|-2---5-7-|-2---7-5-| 4x
E|-0---3-5-|-0---5-3-|



Gtr.I
e|------------------------------|------------------------------|
B|------------------------------|------------------------------|
G|------------------------------|------------------------------|
D|-2-2-2---8------2-2-2---8---7-|-2-2-2---8------2-2-2---8---7-|\
A|-2-2-2---8------2-2-2---8---7-|-2-2-2---8------2-2-2---8---7-| \
E|-0-0-0---6------0-0-0---6---5-|-0-0-0---6------0-0-0---6---5-|  \
                                                                   \
Gtr.II                                                              4x
e|------------------------------|------------------------------|   /
B|-11~~~------------------------|-10~~~------------------------|  /
G|------------------------------|------------------------------| /
D|------------------------------|------------------------------|/
A|------------------------------|------------------------------|
E|------------------------------|------------------------------|



Gtr.I
e|-------------------------|-------------------------|
B|-------------------------|-------------------------|
G|-------------------------|-------------------------|
D|-2-2-2-----2-2-2---------|-2-2-2-----2-2-2---------|
A|-2-2-2-----2-2-2---------|-2-2-2-----2-2-2---------|
E|-0-0-0-----0-0-0---------|-0-0-0-----0-0-0---------|


Most time Triple H is in the ring yet and the music ends, but maybe you
have heard the music longer. Listen to it to know what riff you have to
play. I have tabed all the riffs of that song.

I hope you like it. Please rate!
Tap to rate this tab
 
# A B C D E F G H I J K L M N O P Q R S T U V W X Y Z