Song name
# A B C D E F G H I J K L M N O P Q R S T U V W X Y Z

Misc Wwf - Undertaker Theme tab

Undertaker theme
Tabbed by Kyle O.

This is the theme that the undertaker has used since wrestlemania 20

|------------------------------|
|------------------------------|
|------------------------------|
|-3--3--3-3--6--5-5--3-3--2-3--|
|------------------------------|
|------------------------------|

|---------------------------------------------|
|---------------------------------------------|
|-5---3-5-3---5-3-8-7-5-3---------------------|
|--3-5-----5-3-----------5-3--5---3-5-3-------|
|------------------------------3-5-----5-3-5~-|
|---------------------------------------------|

|--------------------------------------------------|
|--------------------------------------------------|
|----7--5-3---5-3---5-3-8-7-5-3--------------------|
|-3-5------5-3---5-3-----------5-3-5---3-5-3-------|
|-----------------------------------3-5-----5-3-5~-|
|--------------------------------------------------|

probably the greatest intro theme of all time
enjoy
Tap to rate this tab
 
# A B C D E F G H I J K L M N O P Q R S T U V W X Y Z