Song name
# A B C D E F G H I J K L M N O P Q R S T U V W X Y Z

Misc Wwf - Batista Theme tab

-------------------------------------------------------------------------------
			  Batista's Entrance Music
-------------------------------------------------------------------------------
Tabbed by: Nate Zaso

I think this is 99% correct.

Tuning:Standard

e|---------------------------------------------------------------------------|
B|---------------------------------------------------------------------------|
G|---3-0-3-0-3-0--0-3-0-5-0-3-0--3-0--0-5-0-6-0-5-3--------------------------|
D|---3-0-3-0-3-0--0-3-0-5-0-3-0--3-0--0-5-0-6-0-5-3--------------------------|
A|---------------------------------------------------------------------------|
E|---------------------------------------------------------------------------|

e|---------------------------------------------------------------------------|
B|---10----9----9----8-----10-8-9-10-8-9-10-8-9-10-8-6-7-8-6-7-8-6-7-8-10-8-9|
G|----9----8----8----7-------------------------------------------------------|
D|---------------------------------------------------------------------------|
A|---------------------------------------------------------------------------|
E|---------------------------------------------------------------------------|

e|---------------------------------------------------------------------------|
B|---10-8-9-10-8-9-10-12-10-11-12-10-11-12-10-11-12--------------------------|
G|---------------------------------------------------------------------------|
D|---------------------------------------------------------------------------|
A|---------------------------------------------------------------------------|
E|---------------------------------------------------------------------------|
      End part before solo
e|---------------------------------------------------------------------------|
B|---------------------------------------------------------------------------|
G|---3-0-3-0-3-0--0-3-0-5-0-3-0--3-0--0-5-6-5-3------------------------------|
D|---3-0-3-0-3-0--0-3-0-5-0-3-0--3-0--0-5-6-5-3------------------------------|
A|---------------------------------------------------------------------------|
E|---------------------------------------------------------------------------|
    Guitar 2 during second part
e|---------------------------------------------------------------------------|
B|---------------------------------------------------------------------------|
G|---------------------------------------------------------------------------|
D|---------------------------------------------------------------------------|
A|---6----5----8----7--------------------------------------------------------|
E|---4----3----6----5--------------------------------------------------------|
Tap to rate this tab
# A B C D E F G H I J K L M N O P Q R S T U V W X Y Z