Song name
# A B C D E F G H I J K L M N O P Q R S T U V W X Y Z

Misc Wwf - Booker T Theme tab

WWF Themes
Booker T Theme
Tuning: Standard
Transcribed by Soch Hean

-Can you dig it sucka?-
|---------------8--7-----------------10--7-----------|
|-10p8-10p8-10---------10p8-10p8-10------------------|
|----------------------------------------------------|
|----------------------------------------------------|
|----------------------------------------------------|
|----------------------------------------------------|

|---------------8--7-----------------10--8--7--------|
|-10p8-10p8-10---------10p8-10p8-10------------------|
|----------------------------------------------------|
|----------------------------------------------------|
|----------------------------------------------------|
|----------------------------------------------------|

Power Chord Riff:
|-----------------------|
|-----------------------|
|----------------5------|
|-7-------5------5------|
|-7-------5------3------|
|-5-------3-------------|

Instrumental-Organ Part:
|----------------------------------------------------|
|-10===========-------8-10-------------------5-------|
|----hold-note-----9--------7--6------4-\------------|
|----------------------------------------------------|
|----------------------------------------------------|
|----------------------------------------------------|

|----------------5--------5--------|
|-------------------5--8-----------|
|-6====----------------------------|
|---hold-note----------------------|
|----------------------------------|
|----------------------------------|
Tap to rate this tab
# A B C D E F G H I J K L M N O P Q R S T U V W X Y Z