Guitaretab - guitar tabs
Song name
# A B C D E F G H I J K L M N O P Q R S T U V W X Y Z

Misc Wwf - Brock Lesnar Theme tab

-------------------------------------------------------------------------------
			    Brock Lesnar Theme – Misc Wwf
-------------------------------------------------------------------------------
Tabbed by:RVD619
Email:jakeclarke@hotmail.com

Tuning:EADGBe (Standard)

Note: You’ll have to listen to the song to get the timing right
Please e-mail me with feedback. Rate and Enjoy!!!! :)  



e|---------------------------------------------------------------------------|
B|---------------------------------------------------------------------------|
G|---------------------------------------------------------------------------|
D|-2----2--2-2--5---2-2---2--2-2--5-2-2------2-2-2-5--2-2-2--2---------------|
A|-2----2--2-2--5---2-2---2--2-2--5-2-2------2-2-2-5--2-2-2--2---------------|
E|-0----0--0-0--3---0-0---0--0-0--3-0-0------0-0-0-3--0-0-0--0---------------|


[ Tab from: http://www.guitaretab.com/m/misc-wwf/77073.html ]
e|---------------------------------------------------------------------------|
B|---------------------------------------------------------------------------|
G|---------------------------------------------------------------------------|
D|-2----2--2-2--5---2-2---2--2-2--5-2-2------2-2-2-5--2-2-2--2---------------|
A|-2----2--2-2--5---2-2---2--2-2--5-2-2------2-2-2-5--2-2-2--2----12\--------|
E|-0----0--0-0--3---0-0---0--0-0--3-0-0------0-0-0-3--0-0-0--0----12\--------|



e|---------------------------------------------------------------------------|
B|---------------------------------------------------------------------------|
G|-----------3-3-3-----------3-3-3-----------3-3-3-----------3-3-3-----------|
D|--2-2-5-2--3-3-3--2-2-5-2--3-3-3--2-2-5-2--3-3-3--2-2-5-2--3-3-3-----------|
A|--2-2-5-2--1-1-1--2-2-5-2--1-1-1--2-2-5-2--1-1-1--2-2-5-2--1-1-1-----------|
E|--0-0-3-0---------0-0-3-0---------0-0-3-0---------0-0-3-0------------------|

Repeat As Necessary

All Done 

| / slide up
| \ slide down
| h hammer-on
| p pull-off
| ~ vibrato
| + harmonic
| x Mute note
===============================================================================
Related for Brock Lesnar Theme tab
Advertisement will be closed in 10 seconds