Song name
# A B C D E F G H I J K L M N O P Q R S T U V W X Y Z

Misc Wwf - Rhyno Theme tab

-------------------------------------------------------------------------------
			     rhyno - wwf themes
-------------------------------------------------------------------------------
Tabbed by:devourke
Email:can't remember

Tuning:standard

e|---------------------------------------------------------------------------|
B|---------------------------------------------------------------------------|
G|---------------------------------------------------------------------------|
D|-2-2-2-2-2-5-2-5------------------------------------x4---------------------|
A|-2-2-2-2-2-5-2-5-----------------------------------------------------------|
E|-0-0-0-0-0-3-0-3-----------------------------------------------------------|

for the rhino sounding bit at the start i'm pretty sure its
e|---------------------------------------------------------------------------|
B|---------------------------------------------------------------------------|
G|---------------------------------------------------------------------------|
D|---------------------------------------------------------------------------|
A|-2-2-2-2-2----12~----------------------------------------------------------|
E|-0-0-0-0-0----10~----------------------------------------------------------|
| /  slide up
| \  slide down
| h  hammer-on
| p  pull-off
| ~  vibrato
| +  harmonic
| x  Mute note
===============================================================================
Tap to rate this tab
# A B C D E F G H I J K L M N O P Q R S T U V W X Y Z