Song name
# A B C D E F G H I J K L M N O P Q R S T U V W X Y Z

Misc Wwf - Shawn Michaels Theme tab

That's the theme of Shawn Michaels - Sexy Boy


Intro: 0:00

There is no guitar.



Verse: 0:06

Gtr.I
e|-----------------|-----------------|-------------------|-----------------|
B|-----------------|-----------------|-------------------|-----------------|
G|-2-2-------2-5---|-----------------|-------------------|-----------------|
D|-2-2-------2-5---|-3-3-------------|-5-5-------5---7---|-----------------|
A|-0-0-------0-3---|-3-3-------------|-5-5-------5---7---|-----------------|
E|-----------------|-1-1-------------|-3-3-------3---5---|-----------------|

Gtr.II
e|-----------------|-----------------|-------------------|-----------------|
B|-----------------|-----------------|-------------------|-----------------|
G|-----------------|-----------------|-------------------|-----5-----------|
D|-----7p5h7-------|-----7p5h7-------|-----7p5h7---------|---7-----7-------|
A|-----------------|-----------------|-------------------|-----------------|
E|-----------------|-----------------|-------------------|-----------------|



Gtr.I
e|-----------------|-----------------|-----------------|-----------------|
B|-----------------|-----------------|-----------------|-----------------|
G|-2-2-------2-5---|-----------------|-----------------|-----------------|
D|-2-2-------2-5---|-3-3-------------|-5-5-------5-7---|-----------------|
A|-0-0-------0-3---|-3-3-------------|-5-5-------5-7---|-----------------|
E|-----------------|-1-1-------------|-3-3-------3-5---|-----------------|

Gtr.II
e|-----------------|-----------------|-----------------|-----------------|
B|-----------------|-----------------|-----------------|-----------------|
G|-----------------|-----------------|-----------------|-----5-6-7-7-5---|
D|-----7p5h7-------|-----7p5h7-------|-----7p5h7-------|---7-----------7-|
A|-----------------|-----------------|-----------------|-----------------|
E|-----------------|-----------------|-----------------|-----------------|



Chorus: 0:22

Gtr.I
e|-----------------|-----------------|-----------------|-----------------|
B|-----------------|-----------------|-----------------|-----------------|
G|-----------------|-----------------|-----------------|-5-5---7---------|
D|-7---7---5-5-----|-3-3---5---------|-7---7---5-5-----|-5-5---7---------|
A|-7---7---5-5-----|-3-3---5---------|-7---7---5-5-----|-3-3---5---------|
E|-5---5---3-3-----|-1-1---3---------|-5---5---3-3-----|-----------------|

Gtr.II
e|-----0-----------|-----------------|-----0-----------|-3-3---5---------|
B|-----1---3-3-----|-1-1---3---------|-----1---3-3-----|-5-5---7---------|
G|-----2---4-4-----|-2-2---4---------|-----2---4-4-----|-5-5---7---------|
D|---------5-5-----|-3-3---5---------|---------5-5-----|-----------------|
A|-----------------|-----------------|-----------------|-----------------|
E|-----------------|-----------------|-----------------|-----------------|



Gtr.I
e|-----------------|-----------------|-----------------|-----------------|
B|-----------------|-----------------|-----------------|-----------------|
G|-----------------|-----------------|---2-2-2-2-2-2-2-|---5-5-5-5-7-7---|
D|-7---7---5-5-----|-3---3---5-------|---2-2-2-2-2-2-2-|---5-5-5-5-7-7---|
A|-7---7---5-5-----|-3---3---5-------|---0-0-0-0-0-0-0-|---3-3-3-3s5-5---|
E|-5---5---3-3-----|-1---1---3-------|-----------------|-----------------|

Gtr.II
e|-----5---5---5---|-5---5---5---5-5-|-----------------|-----------------|
B|-----5-----------|-----------------|---5-5-5-5-5-5-5-|-----------------|
G|---------7---7---|-5---5---7---7-7-|-----------------|-----------------|
D|-----------------|-----------------|-----------------|-----------------|
A|-----------------|-----------------|-----------------|-----------------|
E|-----------------|-----------------|-----------------|-----------------|



After that you play:

Verse:  0:38
Chorus: 0:54

After that HBK is in the ring and the music ends.


I hope you like this tab
Tap to rate this tab
 
# A B C D E F G H I J K L M N O P Q R S T U V W X Y Z