Guitaretab - guitar tabs
Song name
# A B C D E F G H I J K L M N O P Q R S T U V W X Y Z

Misc Your Songs - Khoury Mueller - House Of The Rising Sun tab

This is a little lead guitar part for the song.

s= slide
h= hammer
p= pull off

e|--------------------------------------------------|
B|---------------------------------8-10--10-8-------|
G|------5--7-s-9--7-5-----5--7-s-9------------------|
D|-7--7---------------7-----------------------------|
A|--------------------------------------------------|
E|--------------------------------------------------|
[ Tab from: http://www.guitaretab.com/m/misc-your-songs/102168.html ]
e|------------8-10-8--10-p-8------------------------|
B|-------8-10----------------10--10-8---------------|
G|-9-7-9------------------------------9-7-s-5-------|
D|--------------------------------------------7-----|
A|--------------------------------------------------|
E|--------------------------------------------------|

e|--------------------------------------------------|
B|--------------------------------------------------|
G|--------------------------------------------------|
D|-7-5--2-5-s-7-----repeat--through--song-----------|
A|--------------------------------------------------|
E|--------------------------------------------------|

e|--------------------------------------------------|
B|--------------------------------------------------|
G|--------------------------------------------------|
D|--------------------------------------------------|
A|--------------------------------------------------|
E|--------------------------------------------------|
Related for Khoury Mueller - House Of The Rising Sun tab
×
Best way to learn
"Khoury Mueller - House Of The Rising Sun"