Song name
# A B C D E F G H I J K L M N O P Q R S T U V W X Y Z

Misc Your Songs - Michael Lewis - Masterpiece tab

i'm tired of reading tabs about how people wrote this or that "song" (if you can even 
it that) and about how they're only 12 or 13 or whatever. well im 15, ive been playing for 
1/2 a year,(w/o lessons of any kind) and i wrote THIS.

standard tuning
let all notes/chords ring

rift I
e|-2--2--3-----2----0--0--3----0-----|
B|-3---3---3----3---1---1---1---1----|
G|-2----2---2-2-----0----0---00------|
D|-0-------------00-2------------2-0-|
A|------------------3----------------| 4xs
E|-----------------------------------|

rift II  *keep a steady rhythm
e|----3------------1-----0---|
B|---1-1----1-----3-3---0-0--|
G|--2---2--0-0---2---2-1---1-|
D|-2------2---2-0-----2------|
A|-------3-------------------|  4xs
E|---------------------------|

rift III  *little slower now
e|----0-------------------------------|
B|---0--0-----0--------0--------------|
G|--1----1---0--0-----0--0-----0------|
D|-2------2-2----2---0----0---0--0----|
A|---------3------3-2------2-0--------|  2xs
E|--------------------------3-----3-0-|

rift IV
e|-----0--------------------------|
B|------1-1----1-------1-------0--|
G|---0---0---0--0-0--0--0-0--0----|
D|--2-2-----0-0--0--0-0--0--0-0---|
A|-3-------2-------1-------0------|  2xs
E|--------------------------------|

play rift III

rift V
e|-0-00-0000-00-0000-00-000--------|
B|-0-00-0000-00-0000-00-0000-00-00-|
G|-1-11-1110-00-0000-00-0000-00-00-|
D|-2-22-2222-22-222x-xx-xxx0-00-00-|
A|---------3-33-3332-22-222x-xx-xx-|  2xs
E|-------------------------3-33-33-|

on the second time only
e|-2------2--3----22-2-|
B|-3-hold--3---3---3-2-|
G|-2--------2---22-2-0-|
D|-0---------------0-0-|
A|-------------------2-|
E|-------------------3-|

if they accept this then ill submit my other song. its just all chords but its easy and catchy.

megadeth rules!
Tap to rate this tab
# A B C D E F G H I J K L M N O P Q R S T U V W X Y Z