Song name
# A B C D E F G H I J K L M N O P Q R S T U V W X Y Z

Misc Your Songs - Michael Lewis - Mayor Bee tab

clean electric or acoustic

Rift I
e|--------------------------------------------------------------------|
B|-5-55-5555-55-5553-33-3333-33-3333-33-3333-33-3332-22-2222-22-222---|
G|-4-44-4444-44-4440-00-0000-00-0002-22-2222-22-2222-22-2222-22-222---|
D|-2-22-2222-22-2220-00-0000-00-0000-00-0000-00-0002-22-2222-22-222---|
A|-2-22-2222-22-222x-xx-xxxx-xx-xxx0-00-0000-00-0000-00-0000-00-000---|
E|-0-00-0000-00-0003-33-3333-33-333-----------------------------------|
     (2xs)

Rift II
e|---------------------------------0-00-0000-00-0002-22-2222-22-222---|
B|-3-33-3333-33-3333-33-3333-33-3333-33-3333-33-3333-33-3333-33-333---|
G|-0-00-0000-00-0000-00-0000-00-0002-22-2222-22-2222-22-2222-22-222---|
D|-0-00-0000-00-000x-xx-xxxx-xx-xxx0-00-0000-00-0000-00-0000-00-000---|
A|-2-22-2222-22-2223-33-3333-33-3330-00-0000-00-000-------------------|
E|--------------------------------------------------------------------|
     (2xs)

Rift III
   6xs
    |
  /----\
e|-2-----------------------3------------------------------------------|
B|-3-3-3---3-33-3333-33-33-3------------------------------------------|
G|-2-0-0---0-00-0000-00-00-0------------------------------------------|
D|-0-0-x---2-22-2222-22-22-0------------------------------------------|
A|---x-3---3-33-3333-33-33-2------------------------------------------|
E|---3---------------------3------------------------------------------|

Rift VI
   4xs
     |
  /--------\
e|----------|---------------------------------------------------------|
B|-3-33-333-|-3-33-3333-33-3332-22-2222-22-2225-55-5553-33-3333-33-333|
G|-0-00-222-|-0-00-0002-22-2222-22-2222-22-2224-44-4440-00-0002-22-222|
D|-0-00-000-|-0-00-0000-00-0002-22-2222-22-2222-22-2220-00-0000-00-000|
A|----------|-x-xx-xxx0-00-0000-00-0000-00-0002-22-222x-xx-xxx0-00-000|
E|----------|-3-33-333------------------------0-00-0003-33-333--------|
 |                                                                    |
e|--------------------------------------------------------------------|
B|-3-33-333-----------------------------------------------------------|
G|-2-22-222-----------------------------------------------------------|
D|-0-00-000-----------------------------------------------------------|
A|-0-00-000-----------------------------------------------------------|
E|--------------------------------------------------------------------|

Play "Rift II"
           5xs
            |
         /-------\
e|-2-----22-2-----------------------3---------------------------------|
B|-3-3-3-33-3-3-3---3-33-3333-33-33-3---------------------------------|
G|-2-0-0-22-2-0-0---0-00-0000-00-00-0---------------------------------|
D|-0-0-x-00-0-0-x---2-22-2222-22-22-0---------------------------------|
A|---x-3------x-3---3-33-3333-33-33-2---------------------------------|
E|---3--------3---------------------3---------------------------------|

    3xs              6xs
     |                |
  /-----\          /-----\
e|---------3-|    |--------------------------3-------------------------|
B|-3-3-3---3-|    |-3-3-3---3-33-3333-33-33--3-------------------------|
G|-0-0-0---0-|    |-0-0-0---0-00-0000-00-00--0-------------------------|
D|-0-0-x---0-|-2xs|-0-0-x---2-22-2222-22-22--0-------------------------|
A|-x-2-3---2-|    |-x-2-3---3-33-3333-33-33--2-------------------------|
E|-3-------3-|    |-3------------------------3-------------------------|

Like I said, simple

Guns N' Roses Rules!!! 
Tap to rate this tab
# A B C D E F G H I J K L M N O P Q R S T U V W X Y Z