Guitaretab - guitar tabs
Song name
# A B C D E F G H I J K L M N O P Q R S T U V W X Y Z

Misc Your Songs - The Critical Masses - More Than Friends tab

Intro
e-------------------------|
B-------------------------|
G-------------5-5-x-------|
D-7-7-x-3-3-x-5-5-x-5-5---|x(x4)
A-7-7-x-3-3-x-3-3-x-5-5-x-|
E-5-5-x-1-1-x-------3-3-x-|


verse
e-------------------------|
B-------------------------|
G-------------5-5-x-------|
D-7-7-x-3-3-x-5-5-x-5-5---|x(x6)
A-7-7-x-3-3-x-3-3-x-5-5-x-|
E-5-5-x-1-1-x-------3-3-x-|
[ Tab from: http://www.guitaretab.com/m/misc-your-songs/112819.html ]
Chours
e------------------------        ------------------|
B------------------------        ------------------|
G-------5-5--------------(x3)then5-5---------------|
D-7-7-7-5-5-5-5-3-3-3-3-3        5-5-5-5-3-3-3-3-3-|
A-7-7-7-3-3-5-5-3-3-3-3-3        3-3-5-5-3-3-3-3-3-|
E-5-5-5-----3-3-1-1-1-1-1        ----3-3-1-1-1-1-1-|

Bridge
e---------------------|
B---------------------|
G---------------------|
D-7-7-5-7-7-3-7-7-5---|7(x8)
A-7-7-5-7-7-3-7-7-5-7-|
E-5-5-3-5-5-1-5-5-3-5-|


outro
e-------------------------|
B-------------------------|
G-------------5-5-x-------|(x5 fifth time start fading out)
D-7-7-x-3-3-x-5-5-x-5-5-x-|
A-7-7-x-3-3-x-3-3-x-5-5-x-|
E-5-5-x-1-1-x-------3-3-x-|


Order
Intro duh
Verse1
Chorus
verse2
Chorus
Bridge
Chorus
Verse3
Outro
Related for The Critical Masses - More Than Friends tab
Advertisement will be closed in 10 seconds