Song name
# A B C D E F G H I J K L M N O P Q R S T U V W X Y Z

Misc Your Songs - Ring Of Fire tab

Dylan and Chris
This is a local (oregon state) group.  I know no one knows who we are.  Just wanted to get it out there.

Intro:
e|---------------------------------------------------------|
B|---------------------------------------------------------|
G|-----0-----0-------------0-----0-------------------------|
D|-------2-----2-------------2-----2-----------0-----0-----|
A|-2-2-----2-----2-----3-3-----3-----3-----------2-----2---|
E|-----------------------------------------3-3-----3-----3-|

e|-----------------|
B|-----------------|
G|-----------0-----|  repeat 4 times
D|-----0-------0---|
A|-------0-------0-|
E|-2-2-----2-------|


Main part:
e|-0--0--2----|
B|-0--1-(2)---|
G|-0--0--0----|  strum each chord several times
D|-2--2--0----|
A|-2--3--2--0-|
E|-x--x--3--1-|

Verse:
e|---------------------------------------------------------|
B|---------------------------------------------------------|
G|-0-0-0-0--0-0-0-0----------------------------------------|
D|-2-2-2-2--2-2-2-2--0-0-0-0--0-0-0-0----------------------|
A|-2-2-2-2--3-3-3-3--3-3-3-3--0-0-0-0----------------------|
E|-------------------2-2-2-2--1-1-1-1----------------------|
   * * * *  * * * *  * * * *  * * * * (palm mute)

Outro:
e|---------------------------------------------------------|
B|---------------------------------------------------------|
G|-----0-----0-------------0-----0-------------------------|
D|-------2-----2-------------2-----2-----------0-----0-----|
A|-2-2-----2-----2-----3-3-----3-----3-----------2-----2---|
E|-----------------------------------------3-3-----3-----3-|
   * * * * *  * * *    * * * * * * * *     * * * * * * * *
e|-----------------|
B|-----------------|
G|-----------0-----|  repeat until fade
D|-----0-------0---|
A|-------0-------0-|
E|-1-1-----1-------|
   * * * * * * * * (palm mute)
Tap to rate this tab
 
# A B C D E F G H I J K L M N O P Q R S T U V W X Y Z