Song name
# A B C D E F G H I J K L M N O P Q R S T U V W X Y Z

Misc Your Songs - Sam Britt - Flow tab

-------------------------------------------------------------------------------
			     FLOW - Sam Britt
-------------------------------------------------------------------------------
Tabbed by: 2guitargod4
Email: sam.rocks.123@hotmail.com (email me for any suggestions)

Tuning: standard (EADGBe)
>>>>>>>CAPO AT 3RD FRET<<<<<<<<<<
INTRO
:SLOW,HOLD LAST NOTE
PLAY X1
e|--------------------------------------------------------------------------|
B|-0-----0---------------------------------------------------3---1-0--------|
G|----0-----0-2h4-2---0------------------0-0h2--0-2-4-4/5--5---------0-0h2--|
D|----5-----------------4-0-2--0-2---2-4---------------------0--------------|
A|----------------0---------0----0---------0--------0-0----------------0----|
E|--------------------------------------------------------------------------|

PART A
:STRUMMING RYTHM CAN BE HARD TO GET BUT TRY YOUR HARDEST TO GET IT BECAUSE THE STRUMMING
MAKES THE SONG,MEDIUM SLOW
PLAY X2
   D D D DU D   D D D DU D   D D D DU D  D D D DU D D
e|--------------------------------------------------------------------------|
B|--------------------------------------------------------------------------|
G|--------------------------------------------------------------------------|
D|-2-2-2-22-2-4-0-0-0-00-0-0-0-0-0-00-0--0-0-0-00-0-0-----------------------|
A|-0-0-0-00-0-0-3-3-3-33-3-2-0-0-0-00-0--0-0-0-00-0-0-----------------------|
E|-0-0-0-00-0-0-0-0-0-00-0-0-3-3-3-33-3--3-3-3-33-3-3-----------------------|

PART B
:CONTINUES ON FROM PART A,SAME STRUMMING RYTHM(little variation),MEDIUM SLOW
PLAY X2
  D D D DUD D D D   D D D DU D D D   D D DU D D D   D   D   DU D
e|--------------------------------------------------------------------------|
B|--------------------------------------------------------------------------|
G|--------------------------------------------------------------------------|
D|-0-0-0-00-0-0-0---0-0-0-00-0-0-0---0-0-00-0-0-0---0---0---00-0------------|
A|-0-0-0-00-0-0-0---0-0-0-00-0-0-0---0-0-00-0-0-0---0---0---00-0------------|
E|-3-3-3-33-3-3-3/5-5-5-5-55-5-7-7/8-8-8-88-8-8-8/7-7/5-5/3-33-3------------|

RETURN TO PART A AND PLAY THROUGH X2.

INSTEAD OF PART B NOW PLAY PART C
:FINGER PICKING,MEDIUM FAST
PLAY X2
e|--------------------------------------------------------------------------|
B|----0h1------0h1-1h3-1-0h1------0h1----3--1--0----------------------------|
G|---2---2----2-------------2----2---2--2--2--2---0-------------------------|
D|-----------------------------------------------3--------------------------|
A|-0---------0------------------0-------------------------------------------|
E|--------------------------------------------------------------------------|

PART D
:CONTINUES ON FROM PART C,FINGER PICKING,MEDIUM FAST
PLAY X2
e|--------------------------------------------------------------------------|
B|--------------------------------------------------------------------------|
G|---0---0------0---0-------0---0------0---0--------0---0-----0---0---------|
D|--2---2---2--2---2---2---2---2---2--2---2---2----2---2-2---2---2-2--------|
A|-3---3---3--5---5---5---------------------------3---3-----5---5-----------|
E|------------------------5---5---5--5---5---5------------------------------|

e|--------------------------------------------------------------------------|
B|--------------------------------------------------------------------------|
G|---0---0-----5------------------------------------------------------------|
D|--2---2-2---2-------------------------------------------------------------|
A|--------------------------------------------------------------------------|
E|-5---5-----0--------------------------------------------------------------|

LAST TIME ADD THIS ENDING:
e|--------------------------------------------------------------------------|
B|--------------------------------------------------------------------------|
G|-4-2--2/4\2---------------------------------------------------------------|
D|------5/7\5---------------------------------------------------------------|
A|------0-------------------------------------------------------------------|
E|------3/5\3---------------------------------------------------------------|

THATS IT. I WILL PROBABLY BE POSTING AN MP3 OF THIS SONG ON MY PROFILE SO KEEP CHECKING
EVERY NOW AND THEN. I HOPE YOU LIKE MY SONG, IT IS KIND OF SAD BUT RELAXING AND THE SAME
I THOUGHT THE THE STRUMMING PARTS REPRESENTED LIKE A RIVER OR CALM WAVES SO I NAMED IT 
ENJOY

| D  down stroke
| U  up stroke
| /  slide up
| \  slide down
| h  hammer-on
| p  pull-off
| ~  vibrato
| +  harmonic
| x  Mute note
===============================================================================
Tap to rate this tab
 
# A B C D E F G H I J K L M N O P Q R S T U V W X Y Z