Guitaretab - guitar tabs
Song name
# A B C D E F G H I J K L M N O P Q R S T U V W X Y Z

Misc Your Songs - The Mafia - Lacerated tab

----------------------------------------------------------------------------
			     Lacerated - The Mafia
----------------------------------------------------------------------------

Words and Music by: Zach LaPietra
Email: zachlapietra@yahoo.com

Tuning: CGCFAD (Drop C)

My major influences for  this song were Bullet For My Valentine and Avenged 
Sevenfold. This is the first song I ever finished, hope you enjoy it. 

Intro:

 Part A        Part B

D|-------------|--------------------------------------------------------|
A|-------------|--------------------------------------------------------|
F|-------------|--------------------------------------------------------|
C|-2-----------|--------------------------------------------------------|
G|-2-----------|---------6-5-3-5---------8-6-5-6---------6-5-3-5--------|
C|-2-----------|-000-000---------000-000---------000-000---------000-000|
  (Cresendo)   PM... ...         ... ...         ... ...         ... ...   

D|----------------------------------------------------------------------|
A|----------------------------------------------------------------------|
F|------------------------------------------------------------------8-7-|
C|-----------------8-7-5-7---------10-8-7-8---------8-7-5-7-------------|
G|-8-6-5-6--------------------------------------------------------------|
C|---------000-000---------000-000----------000-000---------000-000-----|
 PM        ... ...         ... ...          ... ...         ... ...

             Part C                                                      
        PH                                     
D|-----------|-----------------------------------------------------------|
A|-----------|-----------------------------------------------------------|
F|-5-7-8-5~~-|-----------------------------------------------------------|
C|-----------|-6-5-3-5--6-5-3-5---------6-5-3-5---5--6-5-3-5--6-5-3-5----|
G|-----------|-6-5-3-5--6-5-3-5---------6-5-3-5---3--6-5-3-5--6-5-3-5----|
C|-----------|-6-5-3-5--6-5-3-5-000-000-6-5-3-5-0----6-5-3-5--6-5-3-5-000|
             PM                 ... ...         .                     ...
                                       
                                       Verse:
                (x2) Part D
D|-------------------|----------------|----------------------------------|
A|-------------------|----------------|----------------------------------|
F|-------------------|----------------|----------------------------------|
C|-----6-5-3-5---5-3-|-0--------------|-3h5-5-5-5-5-5-5-5-5---------55555|
G|-----6-5-3-5---3-1-|-0---\\\\\\\\\\-|-3h5-5-5-5-5-5-5-5-5---------33333|
C|-000-6-5-3-5-0-----|-0---\\\\\\\\\\-|-3h5-5-5-5-5-5-5-5-5-000-000------|
 PM...         .           ^pickslide       .   .   .   .   ... ...

D|-----------------------------------------------------------------------|
A|-----------------------------------------------------------------------|
F|-----------------------------------------------------------------------|
C|555-----5-----5---6--3h6-6-6-6-6-6-6-6-6---------77777777-----7-----7--|
G|333-3-3---3-3---3----3h6-6-6-6-6-6-6-6-6---------55555555-5-5---5-5---5|
C|---------------------3h6-6-6-6-6-6-6-6-6-000-000-----------------------|
 PM   . .   . .   .        .   .   .   .   ... ... 

                               Chorus:
  (x2)
D|---|------------------------|-------------------------------------------|
A|---|------------------------|-------------------------------------------|
F|---|------------------------|-------------------------------------------|
C|-8-|-0---3------------------|-7----------------------8p5-7p5--5---------|
G|---|-0---3---------3~-------|-5--5-5-555-5-5-555-555----------3--3-3-333|
C|---|-0---3---0-0-0----0-0-0-|-------------------------------------------|
     PM        . . .    . . .      . . ... . . ... ...             . . ...
[ Tab from: http://www.guitaretab.com/m/misc-your-songs/187543.html ]
D|------------------------------------------------------------------------|
A|------------------------------------------------------------------------|
F|------------------------------------------------------------------------|
C|-------------6p3-5p3--5-------------------------------3-----------------|
G|-3-3-333-333----------5----------------------8p5-7p5--3-----------------|
C|----------------------5--5-5-555-5-5-555-555----------3--3-3-333-3-3-333|
PM . . ... ...             . . ... . . ... ...             . . ... . . ...

D|-------------------------------------------------|
A|-------------3-----------------------------------|
F|-------------2-----------------------------------|
C|-------------0-----------------------------------|
G|----6p3-5p3--0-----------------------------------|
C|333----------0-----0-0-0-/12~--0-0-0-/11~--0-0-0-|
 PM..                . . .       . . .       . . .

Repeat "Intro, Part C" through "Chorus"

 Interlude:

D|---------------------------------------------------------------------|
A|---------------------------------------------------------------------|
F|---------------------------------------------------------------------|
C|---------------------------------------------------------8-7-5-7-----|
G|---------6-5-3-5---------8-6-5-6---------6-5-3-5---------------------|
C|-000-000---------000-000---------000-000---------000-000---------000-|   
PM ... ...         ... ...         ... ...         ... ...         ...

                                                 PH
D|----------------------------------------------------------------------|
A|----------------------------------------------------------------------|
F|------------------------------------------------------------------7---|
C|-----10-8-7-8---------8-7-5-7----------10-8-7-8-7~~---7-8-10-8-10---10|
G|----------------------------------------------------------------------|
C|-000----------000-000----------000-000--------------------------------|
 PM...          ... ...          ... ...         

                                                                 Bridge:

D|--------------------------------------8----8-9-8-9-11b13r11~~-|-------|
A|-----------------8----8-9-8-9-11-9-11---11--------------------|-------|
F|-7-8-7-8-10-8-10---10-----------------------------------------|-------|
C|--------------------------------------------------------------|-------|
G|--------------------------------------------------------------|-0-0-X-|
C|--------------------------------------------------------------|-0-0-X-|

D|----------------------------------------------------------------------|
A|----------------------------------------------------------------------|
F|----------------------------------------------------------------------|
C|----------------------------------------------------------------------|
G|--------X--0-0-X----------X--3-3-X----------X--6-6-X----------X--5-5-X|
C|000-000-X--0-0-X--000-000-X--3-3-X--333-333-X--6-6-X--666-666-X--5-5-X|
 PM.. ...           ... ...           ... ...           ... ...

                                  (x3)
D|-----------------------------------|
A|-----------------------------------|
F|-----------------------------------|
C|-----------------------------------|
G|--------X--8-8-X----------X--\\\\\\|
C|555-555-X--8-8-X--888-888-X--\\\\\\|
 PM.. ...           ... ...    ^pickslide

Rest for an a capella Chorus.
Repeat "Chorus"

 Outro:
                                 PH
D|-----------|-------------------------|
A|-----------|-------------------------|
F|-----------|---------8-7-5-7-8-5~~~--|
C|-0---3---0-|-------------------------|
G|-0---3---0-|-------------------------|
C|-0---3---0-|-000-000-----------------|
PM             ... ...

Lyrics
CAPS = Screamed lyrics

Intro:
(Heart beating slowly. Quickens, turns into distorted guitar.)
NO!

Verse 1:
HOW COULD YOU LEAVE ME
You said that this would NEVER BE
WHEN YOU FIRST TOLD ME
My tears so thick I COULDN'T SEE
What did you do
When I confessed my love to you
What can you say
For going his drug addicted way
But when he abuses you
I TOLD YOU

Chorus:
You ripped open my chest
Did what you always did best
You're knife struck its mark
Now I'm decaying on the inside
I found my heart LACERATED

Verse 2:
YOU HAD TOLD ME
That this was real, you'd NEVER LEAVE
BUT YOU LIED TO ME
I was so angry I COULDN'T SEE
What did you do
When I told you I loved you
What can you say
For going his alcoholic way
But when he hurts you
I TOLD YOU

(Chorus)

Bridge:
DON'T COME CRAWLING BACK
I DON'T CARE FOR YOU ANYMORE
YOU HAVE NONE OF MY SYMPATHY (x2)
BE-CAUSE

(Chorus, group, a capella. Repeat again, heavy)

Outro:
HEARTS (Hearts)
BEEN (Been)
LACERATED!
                                               
| /  slide up
| \  slide down
| h  hammer-on
| p  pull-off
| ~  vibrato
| +  harmonic
| x  Mute note
Related for The Mafia - Lacerated tab
Advertisement will be closed in 10 seconds