Song name
# A B C D E F G H I J K L M N O P Q R S T U V W X Y Z

Misc Your Songs - Philippe Salmon - En Attendant Mieux tab

                               En attendant mieux    
Philippe Salmon 2008
Album : Un jour de blues ordinaire                            


Piste 1
     E  E  E  E  H           E  E  E  E  H           E  E  E  E  H         
E||-----------------------|-----------------------|-----------------------|
B||-----------3--L--------|-----------3--L--------|-----------2--L--------|
G||--------0--------------|--------0--------------|--------0--------------|
D||-----2-----------------|-----2-----------------|-----2-----------------|
A||--0--------------------|--0--------------------|--0--------------------|
E||-----------------------|-----------------------|-----------------------|


  E  E  E  E  H           E  E  E  E  Q    E  E     E  E  E  E  Q    E  E   
-----------------------|-------------------0-----|-------------------0-----|
-----------2--L--------|-----------3--L-------3--|-----------3--L-------3--|
--------0--------------|--------0----------------|--------0----------------|
-----2-----------------|-----2-------------------|-----2-------------------|
--0--------------------|--0----------------------|--0----------------------|
-----------------------|-------------------------|-------------------------|


  E  E  E  E  Q    E  E     E  E  E  E  Q    E  E     E  E  E  E  Q    E  E   
-------------------0-----|-------------------0-----|-----------2--L----------|
-----------2--L-------2--|-----------2--L-------2--|--------3----------------|
--------0----------------|--------0----------------|-----0-------------------|
-----2-------------------|-----2-------------------|-------------------0--2--|
--0----------------------|--0----------------------|-------------------------|
-------------------------|-------------------------|--0----------------------|


  E  E  E  E  Q    E  E     E  E  E  E  Q    E  E     E  E  E  E  Q    E  E   
-----------2--L----------|-----------0--L----------|-----------0--L----------|
--------3----------------|--------0----------------|--------0----------------|
-----0-------------------|-----0-------------------|-----0-------------------|
-------------------0--2--|-------------------0--2--|-------------------0--2--|
-------------------------|--3----------------------|--3----------------------|
--0----------------------|-------------------------|-------------------------|


  E  E  E  E  Q    E  E     E  E  E  E  Q    E  E     E  E  E  E  Q    E  E   
-----------2--L----------|-----------2--L----------|-----------0--L----------|
--------3----------------|--------3----------------|--------0----------------|
-----0-------------------|-----0-------------------|-----0-------------------|
-------------------0--2--|-------------------0--2--|-------------------0--2--|
-------------------------|-------------------------|--3----------------------|
--0----------------------|--0----------------------|-------------------------|


  E  E  E  E  Q    E  E     E  E  E  E  E  E  E  E     E  E  E  E  E  E  E  E   
-----------0--L----------|--------------------------|--------------------------|
--------0----------------|-----------3--------------|-----------3--------------|
-----0-------------------|--------0-----0-----0-----|--------0-----0-----0-----|
-------------------0--2--|-----0-----------0--------|-----0-----------0--------|
--3----------------------|--------------------------|--------------------------|
-------------------------|--3--------------------3--|--3--------------------3--|


  E  E  E  E  E  E  E  E     E  E  E  E  E  E  E  E   
--------------------------|--------------------------|
-----------2--------------|-----------2--------------|
--------0-----0-----0-----|--------0-----0-----0-----|
-----0-----------0--------|-----0-----------0--------|
--------------------------|--------------------------|
--3--------------------3--|--3--------------------3--|


  E  E  E  E  E  E  E  E     E  E  E  E  E  E  E  E   
--------------------------|--------------------------|
-----------3--------------|-----------3--------------|
--------0-----0-----0-----|--------0-----0-----0-----|
-----0-----------0--------|-----0-----------0--------|
--------------------------|--------------------------|
--3--------------------3--|--3--------------------3--|


  E  E  E  E  E  E  E  E     E  E  E  E  E  E  E  E   
--------------------------|--------------------------|
-----------2--------------|-----------2--------------|
--------0-----0-----0-----|--------0-----0-----0-----|
-----0-----------0--------|-----0-----------0--------|
--------------------------|--------------------------|
--3--------------------3--|--3--------------------3--|


  E  E  E  E  E  E  E  E     E  E  E  E  E  E  E  E   
-----------2--------------|-----------2--------------|
--------3-----3-----3-----|--------3-----3-----3-----|
-----0-----------0--------|-----0-----------0--------|
--------------------------|--------------------------|
--------------------------|--------------------------|
--0--------------------0--|--0--------------------0--|


  E  E  E  E  E  E  E  E     E  E  E  E  E  E  E  E     E  E  E  E  Q    Q     
-----------0--------------|-----------0--------------|------------------------|
--------2-----2-----2-----|--------2-----2-----2-----|-----------0--L---------|
-----0-----------0--------|-----0-----------0--------|--------0---------------|
--------------------------|--------------------------|-----3------------------|
--------------------------|--------------------------|--5----------------5----|
--0--------------------0--|--0--------------------0--|------------------------|


  E  E  E  E  Q    Q       E  E  E  E  Q    Q       W                  
------------------------|------------------------|--3----------------||
-----------0--L---------|-----------0--L---------|--0----------------||
--------0---------------|--------0---------------|--0----------------||
-----2------------------|-----1------------------|--0----------------||
--4----------------4----|--3----------------3----|--2----------------||
------------------------|------------------------|--3----------------||




Duration Legend
---------------
W - whole
H - half
Q - quarter
E - 8th
S - 16th
T - 32nd
X - 64th
. - note dotted
|-n-|  - n-tuplets


Tablature Legend
----------------
L - tied note
x - dead note
g - grace note
(n) - ghost note
> - accentuded note
NH - natural harmonic
AH - artificial harmonic
TH - tapped harmonic
SH - semi harmonic
PH - pitch harmonic
h - hammer on
p - pull off
b - bend
br - bendRelease
pb - preBend
pbr - preBendRelease
brb - bendReleaseBend
\n/ - tremolo bar dip
\n - tremolo bar dive
-/n - tremolo bar Release up
/n\ - tremolo bar inverted dip
/n - tremolo bar return
-\n - tremolo bar Release down
S - shift slide
s - legato slide
/ -  slide into from below or out of upwards
\ -  slide into from above or out of downwards
~ - vibrato
W - wide vibrato
tr - trill
TP - tremolo picking
T - tapping
S - slap
P - pop
< - fade in
^ - brush up
v - brush down
Tap to rate this tab
# A B C D E F G H I J K L M N O P Q R S T U V W X Y Z