Guitaretab - guitar tabs
Song name
# A B C D E F G H I J K L M N O P Q R S T U V W X Y Z

Misc Your Songs - Philippe Salmon - Partir tab

                                    PARTIR

(Philippe Salmon 1984)

On this song I use a drop D tuning : the 2 E strings go down to D

Sur ce moceau je joue en accord ouvert : Les deux  MI  deviennent des RE...


Piste 1
     Q    E  E  E  E  Q       Q    E  E  E  E  Q       Q    E  E  E  E  Q
D||------------------------|------------------------|----------------0-------|
B||--3-------------3-------|--5-------------5-------|--7---------------------|
G||--2-------2-------------|--4-------4-------------|--6-------6-------------|
D||-------0-----------0----|-------0-----------0----|-------0-----------0----|
A||------------------------|------------------------|------------------------|
D||--0----------0----------|--0----------0----------|--0----------0----------|


     NH        NH
     Q    E    E  Q    Q    E  E  E  E  Q
--<>12-------<>7-------0-------------0-------|
--<>12-------<>7-------7-------------7-------|
-------------------------------6-------------|
----------------------------0-----------0----|
---------------------------------------------|
----------0-------0----0----------0----------|


     NH        NH
     Q    E    E  Q    Q    E  E  E  E  Q
--<>12-------<>7-------0-------------0-------|
--<>12-------<>7-------7-------------7-------|
-------------------------------6-------------|
----------------------------0-----------0----|
---------------------------------------------|
----------0-------0----0----------0----------|


     NH        NH
     Q    E    E  Q    Q    E  E  E  E  Q       S S E  E  S S E  E  E  E
--<>12-------<>7-------0-------------0-------|------3-----3-5-3--2--0-----|
--<>12-------<>7-------6-------------6-------|--3-5----5---------------0--|
-------------------------------5-------------|----------------------------|
----------------------------0-----------0----|----------------------------|
---------------------------------------------|----------------------------|
----------0-------0----0----------0----------|----------------------------|


  Q    E  E  E  E  Q          Q    E  E  E  E  Q       Q    E  E  E  E  Q
-------------------------||-------------------------|------------------------|
--3-------------3--------||---3-------------3-------|--5-------------5-------|
--2-------2-------------*||*--2-------2-------------|--4-------4-------------|
-------0-----------0----*||*-------0-----------0----|-------0-----------0----|
-------------------------||-------------------------|------------------------|
--0----------0-----------||---0----------0----------|--0----------0----------|


  Q    E  E  E  E  Q       Q    E  E  E  E  Q       Q    E  E  E  E  Q
----------------0-------|------------------------|----------------0-------|
--7---------------------|--5-------------5-------|--7---------------------|
--6-------6-------------|--4-------4-------------|--6-------6-------------|
-------0-----------0----|-------0-----------0----|-------0-----------0----|
------------------------|------------------------|------------------------|
--0----------0----------|--0----------0----------|--0----------0----------|


  Q    E  E  E  E  E  E     Q    E  E  E  E  E  E
----------------0-----0--|--0-------------0---------||
--8-------------8-----8--|--8-------------8---------||
--7-------7--------------|----------7-----------7--*||
-------0-----------0-----|-------0-----------0-----*||
-------------------------|--------------------------||
--0----------0-----------|--0----------0------------||


     NH        NH
     Q    E    E  Q    Q    E  E  E  E  Q
--<>12-------<>7-------0-------------0-------|
--<>12-------<>7-------7-------------7-------|
-------------------------------6-------------|
----------------------------0-----------0----|
---------------------------------------------|
----------0-------0----0----------0----------|


     NH        NH
     Q    E    E  Q    Q    E  E  E  E  Q
--<>12-------<>7-------0-------------0-------|
--<>12-------<>7-------7-------------7-------|
-------------------------------6-------------|
----------------------------0-----------0----|
---------------------------------------------|
----------0-------0----0----------0----------|

[ Tab from: http://www.guitaretab.com/m/misc-your-songs/188811.html ]
     NH        NH
     Q    E    E  Q    Q    E  E  E  E  Q       S S E  E  S S E  E  E  E
--<>12-------<>7-------0-------------0-------|------3-----3-5-3--2--0-----|
--<>12-------<>7-------6-------------6-------|--3-5----5---------------0--|
-------------------------------5-------------|----------------------------|
----------------------------0-----------0----|----------------------------|
---------------------------------------------|----------------------------|
----------0-------0----0----------0----------|----------------------------|


  Q    E  E  E  E  Q       Q    E  E  E  E  Q       Q    E  E  E  E  Q
------------------------|------------------------|--0---------------------|
--3-------------3-------|--3-------------3-------|--1-------------1-------|
--2-------2-------------|--2-------2-------------|----------0-------------|
-------0-----------0----|-------0-----------0----|-------2-----------2----|
------------------------|------------------------|--3----------3----------|
--0----------0----------|--0----------0----------|------------------------|


  Q    E  E  E  E  Q       Q    E  E  E  E  Q       Q    E  E  E  E  Q
--0---------------------|--0---------------------|--0---------------------|
--1-------------1-------|--0-------------0-------|--0-------------0-------|
----------0-------------|----------0-------------|----------0-------------|
-------2-----------2----|-------4-----------4----|-------4-----------4----|
--3----------3----------|------------------------|------------------------|
------------------------|--5----------5----------|--5----------5----------|


  Q    E  E  E  E  Q       Q    E  E  E  E  Q       Q    E  E  E  E  Q
--0---------------------|--0---------------------|------------------------|
--1-------------1-------|--1-------------1-------|--2-------------2-------|
----------0-------------|----------0-------------|--2-------2-------------|
-------2-----------2----|-------2-----------2----|-------2-----------2----|
--3----------3----------|--3----------3----------|--0----------0----------|
------------------------|------------------------|------------------------|


  Q    E  E  E  E  Q       Q    E  E  E  E  Q       Q    E  E  E  E  Q
------------------------|------------------------|------------------------|
--2-------------2-------|--3-------------3-------|--5-------------5-------|
--2-------2-------------|--2-------2-------------|--4-------4-------------|
-------2-----------2----|-------0-----------0----|-------0-----------0----|
--0----------0----------|------------------------|------------------------|
------------------------|--0----------0----------|--0----------0----------|


                              NH        NH
  Q    E  E  E  E  Q          Q    E    E  Q    Q    E  E  E  E  Q
----------------0-------|--<>12-------<>7-------0-------------0-------|
--7---------------------|--<>12-------<>7-------7-------------7-------|
--6-------6-------------|-------------------------------6-------------|
-------0-----------0----|----------------------------0-----------0----|
------------------------|---------------------------------------------|
--0----------0----------|----------0-------0----0----------0----------|


     NH        NH
     Q    E    E  Q    Q    E  E  E  E  Q
--<>12-------<>7-------0-------------0-------|
--<>12-------<>7-------7-------------7-------|
-------------------------------6-------------|
----------------------------0-----------0----|
---------------------------------------------|
----------0-------0----0----------0----------|


     NH        NH
     Q    E    E  Q    Q    E  E  E  E  Q       S S E  E  S S E  E  E  E
--<>12-------<>7-------0-------------0-------|------3-----3-5-3--2--0-----|
--<>12-------<>7-------6-------------6-------|--3-5----5---------------0--|
-------------------------------5-------------|----------------------------|
----------------------------0-----------0----|----------------------------|
---------------------------------------------|----------------------------|
----------0-------0----0----------0----------|----------------------------|


  W
--0----------------||
--3----------------||
--2----------------||
--0----------------||
--0----------------||
--0----------------||


Duration Legend
---------------
W - whole
H - half
Q - quarter
E - 8th
S - 16th
T - 32nd
X - 64th
. - note dotted
|-n-|  - n-tuplets


Tablature Legend
----------------
L - tied note
x - dead note
g - grace note
(n) - ghost note
> - accentuded note
NH - natural harmonic
AH - artificial harmonic
TH - tapped harmonic
SH - semi harmonic
PH - pitch harmonic
h - hammer on
p - pull off
b - bend
br - bendRelease
pb - preBend
pbr - preBendRelease
brb - bendReleaseBend
\n/ - tremolo bar dip
\n - tremolo bar dive
-/n - tremolo bar Release up
/n\ - tremolo bar inverted dip
/n - tremolo bar return
-\n - tremolo bar Release down
S - shift slide
s - legato slide
/ -  slide into from below or out of upwards
\ -  slide into from above or out of downwards
~ - vibrato
W - wide vibrato
tr - trill
TP - tremolo picking
T - tapping
S - slap
P - pop
< - fade in
^ - brush up
v - brush down
Related for Philippe Salmon - Partir tab
Advertisement will be closed in 10 seconds