Song name
# A B C D E F G H I J K L M N O P Q R S T U V W X Y Z

Misc Your Songs - Philippe Salmon - La Cinqieme Saison tab

                              La cinquième saison    (salmon philippe)                           


Piste 1
     E  E  E  E  E  E     E  E  E  E  E  E     E  E  E  E  E  E   
E||-----------0--------|-----------0--------|-----------0--------|
B||--------0-----0-----|--------0-----0-----|--------0-----0-----|
G||-----0-----------0--|-----0-----------0--|-----0-----------0--|
D||--------------------|--------------------|--------------------|
A||--------------------|--------------------|--------------------|
E||--0-----------------|--2-----------------|--3-----------------|


  E  E  E  E  E  E     E  E  E  E  E  E     E  E  E  E  E  E   
-----------0--------|-----------0--------|-----------0--------|
--------0-----0-----|--------0-----0-----|--------0-----0-----|
-----0-----------0--|-----0-----------0--|-----0-----------0--|
--------------------|--------------------|--------------------|
--------------------|--5-----------------|--4-----------------|
--5-----------------|--------------------|--------------------|


  E  E  E  E  E  E     E  E  E  E  E  E       E  E  E  E  E  E   
-----------0--------|-----------0---------||-----------0--------|
--------0-----0-----|--------0------------||--------0-----0-----|
-----0-----------0--|-----0--------------*||-----0-----------0--|
--------------------|--------------------*||--------------------|
--3-----------------|--2------------------||--------------------|
--------------------|--------------3--2---||--0-----------------|


   E  E  E  E  E  E      E  E  E  E  E  E      E  E  E  E  E  E   
------------0--------|------------0--------|------------0--------|
---------0-----0-----|---------0-----0-----|---------0-----0-----|
------0-----------0--|------0-----------0--|------0-----------0--|
---------------------|---------------------|---------------------|
--12-----------------|---------------------|---------------------|
---------------------|--11-----------------|--12-----------------|


  E  E  E  E  E  E     E  E  E  E  E  E     E  E  E  E  E  E   
-----------0--------|-----------0--------|-----------0--------|
--------0-----0-----|--------0-----0-----|--------0-----0-----|
-----0-----------0--|-----0-----------0--|-----0-----------0--|
--------------------|--------------------|--------------------|
--------------------|--9-----------------|--------------------|
--9-----------------|--------------------|--8-----------------|


  E  E  E  E  E  E     E  E  E  E  E  E     E  E  E  E  E  E   
-----------0--------|-----------0--------|-----------0--------|
--------0-----0-----|--------0-----0-----|--------0-----0-----|
-----0-----------0--|-----0-----------0--|-----0-----------0--|
--------------------|--------------------|--------------------|
--------------------|--------------------|--5-----------------|
--9-----------------|--5-----------------|--------------------|


  E  E  E  E  E  E     E  E  E  E  E  E     E  E  E  E  E  E   
-----------0--------|-----------0--------|-----------0--------|
--------0-----0-----|--------0-----0-----|--------0-----------|
-----0-----------0--|-----0-----------0--|-----0--------------|
--------------------|--------------------|--------------------|
--4-----------------|--3-----------------|--2-----------------|
--------------------|--------------------|--------------3--2--|


  E  E  E  E  E  E     E  E  E  E  E  E     E  E  E  E  E  E   
-----------0--------|-----------0--------|-----------0--------|
--------0-----0-----|--------0-----0-----|--------0-----0-----|
-----0-----------0--|-----0-----------0--|-----0-----------0--|
--------------------|--------------------|--------------------|
--------------------|--------------------|--------------------|
--0-----------------|--2-----------------|--3-----------------|


  E  E  E  E  E  E     E  E  E  E  E  E     E  E  E  E  E  E   
-----------0--------|-----------0--------|-----------0--------|
--------0-----0-----|--------0-----0-----|--------0-----0-----|
-----0-----------0--|-----0-----------0--|-----0-----------0--|
--------------------|--------------------|--------------------|
--------------------|--5-----------------|--4-----------------|
--5-----------------|--------------------|--------------------|


  E  E  E  E  E  E     E  E  E  E  E  E     E  E  E  E  E  E     H.             
-----------0--------|-----------0--------|-----------0--------|--0------------||
--------0-----0-----|--------0-----------|--------0-----0-----|--0------------||
-----0-----------0--|-----0--------------|-----0-----------0--|--0------------||
--------------------|--------------------|--------------------|---------------||
--3-----------------|--2-----------------|--------------------|---------------||
--------------------|--------------3--2--|--0-----------------|--0------------||




Duration Legend
---------------
W - whole
H - half
Q - quarter
E - 8th
S - 16th
T - 32nd
X - 64th
. - note dotted
|-n-|  - n-tuplets


Tablature Legend
----------------
L - tied note
x - dead note
g - grace note
(n) - ghost note
> - accentuded note
NH - natural harmonic
AH - artificial harmonic
TH - tapped harmonic
SH - semi harmonic
PH - pitch harmonic
h - hammer on
p - pull off
b - bend
br - bendRelease
pb - preBend
pbr - preBendRelease
brb - bendReleaseBend
\n/ - tremolo bar dip
\n - tremolo bar dive
-/n - tremolo bar Release up
/n\ - tremolo bar inverted dip
/n - tremolo bar return
-\n - tremolo bar Release down
S - shift slide
s - legato slide
/ -  slide into from below or out of upwards
\ -  slide into from above or out of downwards
~ - vibrato
W - wide vibrato
tr - trill
TP - tremolo picking
T - tapping
S - slap
P - pop
< - fade in
^ - brush up
v - brush down
Tap to rate this tab
# A B C D E F G H I J K L M N O P Q R S T U V W X Y Z