Misc Your Songs - Imk - Sad Afternoon tab

iMK - sad afternoon

I wrote this song for my little sister.


   |-----0-------0---|-----0-------0---|-----0-------0---|-----0-------0---|
   |-1-------1-------|-3-------3-------|-1-------1-------|-3-------1-------|
   |---0---0---0---0-|---0---0---0---0-|---0---0---0---0-|---0---0---0---0-|
   |-----------------|-----------------|-----------------|-----------------|
   |-3-------3-------|-2-------3-------|-0-------0-------|-----------------|
   |-----------------|-----------------|-----------------|-3-------3-------|


   |-----0-------0---|-----0-------0---|-----0-------0---|-----0-------0-----||
   |-1-------1-------|-1-------1-------|-1-------3-------|-1-------3--------o||
   |---0---0---0---0-|---0---0---0---0-|---0---0---0---0-|---0---0---0---0---||
   |-----------------|-----------------|-----------------|-------------------||
   |-----------------|-----------------|-----------------|------------------o||
   |-1-------1-------|-0-------0-------|-1-------1-------|-3-------3---------||


||-------0-------0---|-----0-------0---|-----0-------0---|-----0-------0---|
||o--1-------1-------|-0-------0-------|-1-------1-------|-3-------3-------|
||-----0---0---0---0-|---0---0---0---0-|---0---0---0---0-|---0---0---0---0-|
||-------------------|-----------------|-----------------|-----------------|
||o--3-------3-------|-2-------2-------|-0---------------|---------2-------|
||-------------------|-----------------|---------3-------|-1---------------|


   |-----0-------0---|-----0-------0---|-----0-------0---|-----0-------0---|
   |-3-------3-------|-1-------3-------|-1-------3-------|-1-------1-------|
   |---0---0---0---0-|---0---0---0---0-|---0---0---0---0-|---0---0---0---0-|
   |-----------------|-----------------|-----------------|-----------------|
   |-----------------|-3-------2-------|-0---------------|-----------------|
   |-0-------3-------|-----------------|---------3-------|-1-------0-------|


   |-----0-------0---|-----0-------0---|-----0-------0---|-----0-------0-----||
   |-1-------3-------|-1-------3-------|-1-------1-------|-1-------3--------o||
   |---0---0---0---0-|---0---0---0---0-|---0---0---0---0-|---0---0---0---0---||
   |-----------------|-----------------|-----------------|-------------------||
   |-----------------|-3-------2-------|-0---------------|------------------o||
   |-1-------3-------|-----------------|---------3-------|-1-------3---------||


   |-----0-----------||
   |-1-------1-------||
   |---0---0---------||
   |-----------------||
   |-3---------------||
   |-----------------||
Tap to rate this tab
 
# A B C D E F G H I J K L M N O P Q R S T U V W X Y Z