Song name
# A B C D E F G H I J K L M N O P Q R S T U V W X Y Z

Misc Your Songs - Sho Nuff tab

Help us improve GuitareTab! Take a short survey!
intro/verse

-------0---------------0-------------------
-0-------0-------4-------4-----------------
-----5-----5---------5-----5---------------
---5---------5-----5---------5-------------
-4-------4-------0-------0-----------------
---------------0---------------0-----------

bridge

-------------------------------------------
--------------9-10-11-12-------------------
-12--11--10-9------------------------------
-------------------------------------------
-------------------------------------------
-------------------------------------------

chorus

---------0---------------------------------
-----3-------------3-----------------------
-------2-2---------------------------------
-----0-------0---0-------------------------
---0-------0---0---0-----------------------
-0-----------------------------------------
Related for Sho Nuff tab