Song name
# A B C D E F G H I J K L M N O P Q R S T U V W X Y Z

Misc Your Songs - The Mabble Song tab

-------------------------------------------------------------------------------
			     the mabble song - tom rulz
-------------------------------------------------------------------------------

By:tom rulz
song: the mabbelle song

main riff
      G     D    Am    C  x2    G     D     Am    C x2
e|---3-3--------------------|--3-3-------------------------|
B|---2-2---------------3-3--|--2-2---------------3-3-------|
G|---------------2-2---2-2--|--------------2-2---2-2-------|
D|---------2-2---2-2--------|--------2-2---2-2-------------|
A|---------3-3---1-1---1-1--|--------3-3---1-1---1-1-------|
E|---1-1---2-2--------------|--1-1---2-2-------------------|

chorus is same as verse just strum each 1 5 times

Bridge
e|---5-5-5---3-3-3---5-5-5---3-3-3-------------------------|
B|---7-7-7---5-5-5---7-7-7---5-5-5-------------------------|
G|---7-7-7---5-5-5---7-7-7---5-5-5-------------------------|
D|---------------------------------------------------------|
A|---------------------------------------------------------|
E|---------------------------------------------------------|
this song is sooo cool, i wrote it myself, enjoy (charles,and Glenn
Tap to rate this tab
# A B C D E F G H I J K L M N O P Q R S T U V W X Y Z