Song name
# A B C D E F G H I J K L M N O P Q R S T U V W X Y Z

Misc Your Songs - Rejected tab

--------------------------x4    opening
--------------------------
--------------------------
--------------------------
---0-0-0-0-0-0-0-0-0-3-0-3
d--0-0-0-0-0-0-0-0-0-3-0-3

--------------------------
--------------------------verse
--------------------------
--------------------------
---0-0-0-3-0-0-0-5-0-0-0-3-0-0-0-6-5
d--0-0-0-3-0-0-0-5-0-0-0-3-0-0-0-6-5

chourus
---------------------------x2
---------------------------
--------------------------
-----------------------------
--3-3-3-3-3-3-5-5-5-5-5-5-8-8-8-8-8-7-7-7-7-7-----
d-3-3-3-3-3-3-5-5-5-5-5-5-8-8-8-8-8-7-7-7-7-7-------

bridge

--------------------------------------
--------------------------------------
--------------------------------------
--------------------------------------
---0-0-0:0-0-0:-0-0-0:0-0-0:3-----------------------
d--0-0-0:0-0-0:-0-0-0:0-0-0:3----------------------


--------------------------------------
--------------------------------------
--------------------------------------
--------------------------------------
---0-0-0:0-0-0:-0-0-0:0-0-0:5-----------------------
d--0-0-0:0-0-0:-0-0-0:0-0-0:5----------------------


tabed by triangle
(lead guitarist of the cold blooded nuns)
wicked song though
Tap to rate this tab
# A B C D E F G H I J K L M N O P Q R S T U V W X Y Z