Song name
# A B C D E F G H I J K L M N O P Q R S T U V W X Y Z

Misc Your Songs - Insecure tab

------------------------------------------------------------
			     Insecure
------------------------------------------------------------


I just started to play guitar. My older brother made this up and then taught it to me 
so I decided to tab it to see what other people thought of it.


By: Lssthnjake48
         Am                                  C
e|------------------|----------3-0-----|-----------------|
B|------1---3-1-0-1-|------1-------3-1-|-----1---3-1-0-1-|
G|----2---2---------|----2---2---------|-----------------|
D|--2---------------|--3---------------|---2---2---------|
A|------------------|------------------|-3---------------|
E|------------------|------------------|-----------------|
                         Am               C
e|------------------|--000000-|-003000-|-000000-|
B|-----1----3/5-3-1-|--113101-|-111131-|-113101-|
G|------------------|--222222-|-222222-|-000000-|
D|---2---2----------|--222222-|-333333-|-222222-|
A|-2----------------|---------|--------|-333333-|
E|------------------|---------|--------|--------|

e|-0-0-0-0-0-0-|
B|-1-1-3-1-0-1-|
G|-0-0-0-0-0-0-|
D|-2-2-2-2-2-2-|
A|-2-2-2-2-2-2-|
E|-------------|

Repeat chord section twice and play intro again etc..
Tap to rate this tab
# A B C D E F G H I J K L M N O P Q R S T U V W X Y Z