Guitaretab - guitar tabs
Song name
# A B C D E F G H I J K L M N O P Q R S T U V W X Y Z

Misc Your Songs - Mexican Song tab

Ok I'm 14 and this is my first tab it may turn out like crap ok..
                                EM 
E---0-1-3-1-0--------------------0----------------
B-------------3------------------0----------------
G---------------2-2-2------------0----------------
D----------------3-3-3---2-0-2---2----------------
A--------------------------------2----------------
E--------------------------------0----------------
                                 Em
E---------------------------------0----------------
B--0-1-3-1-0----------------------0----------------
G------------2-2-2----------------0----------------
D-------------3-3-3---2-0-2-------2----------------
A---------------------------------2----------------
E---------------------------------0----------------
                                       EM             
E---------------------------------------0------------
B---0----0----1-0-1---------------------0------------
G--1----1---2-------2-0-2---------------0------------
D-2----2-------------------3--2-0-2-----2------------
A---------------------------------------2------------
E---------------------------------------0------------

When you get good at that finger pick this very fast at the last part
                                                      C
E--0---0---0-----0---0---0----0---0---0---0---0---0---0--
B--------0-------------0--------1---0-----------------1--
G----1-------------1--------2-----------2---0---------0--   D-2------------2--------------------------------3-----2--
A-----------------------------------------------------3--
E-----------------------------------------------------X--

0= open
X= don't play
[ Tab from: http://www.guitaretab.com/m/misc-your-songs/29561.html ]
Related for Mexican Song tab
Mexican Song chords by Misc Your Songs