Song name
# A B C D E F G H I J K L M N O P Q R S T U V W X Y Z

Misc Your Songs - Not Knowing tab

not knowing- dedicated to my ex, eat this 
play this part slow

e|---------------------------
B|-----0------0-----0-----0--
G|----0-0----0-0---0-0---0-0-
D|---2------------------0----
A|---------3-----------------
E|----------------3---------- 2x

                       |faster, with finger picking 
e|---------------------|---------------------------------
B|----0----0----0----0-|---------------------------------
G|---0-0--0-0--0-0--0-0|--00--00--00--00---00--00--00--00
D|--2---------0--------|--22----------00---22------00----
A|-------3-------------|------33---------------33------00
E|-----------------3---|----------33--------------------- ?x

their you go, add lyrics or what ever, i don't care, just it is my first tab so don't 
make fun of it. if you add lyrics to it , e-mail them to me, i would like to read them.
-J-Real
Tap to rate this tab
 
# A B C D E F G H I J K L M N O P Q R S T U V W X Y Z