Song name
# A B C D E F G H I J K L M N O P Q R S T U V W X Y Z

Misc Your Songs - On The Edge tab

Tabbed by Jordan Rogers

Standard Tuning

This is what I have of my song that I'm writing! I wanted to post it to see what people think about it! Leave comments and tell me! 


---------------------
---------------------
---------------------
--9----7----5----7---   
-7-7--5-5--3-3--5-5--
---------------------

---------------------------------
---------------------------------
---------------------------------
--9----7----5----------7---------
-7-7--5-5--3-3-3-3--5-5-5-5-5-5--
---------------------------------

-------------------------------------
-------------------------------------
-------------------------------------
---9--9-----7--7-----5--5-----7--7---
-7---7-7--5---5-5--3---3-3--5---5-5--
-------------------------------------

------------------------------------
------------------------------------
------------------------------------
------------------------------------
-9--9-9-9-7-7-7-8--5-5-5-5-4-4-4-4--
-7--7-7-7-5-5-5-6--3-3-3-3-2-2-2-2--
Tap to rate this tab
# A B C D E F G H I J K L M N O P Q R S T U V W X Y Z